Oops, an error
Loading. Please wait.

Sura Yako tab

406 views 3 this week
no commentswrite comment
1 2 3 4 5
3 more votes to show rating
add to favorites
×
Save as Personal and add changes to this tab that will be seen only by you. Learn more ›
×
You can save this tab as Personal to edit and correct it or add notes. All changes will be seen only by you. Learn more »
launch autoscroll
font size
0
reset
how to read this tab
guitar tuner
edit
Autoscroll
slow
fast
+/-
esc
set tempo
stop
Author
Difficulty
-------------------------------------------------------------------------------
                             SURA YAKO - SAUTI SOL
-------------------------------------------------------------------------------
Tabbed by: woodenstrings
E-mail: itsmembau@gmail.com

Tuning: standard

cover: https://youtu.be/3nZwQdi6Ngg

e|-12--------------------|
B|----15-13-12h13--------|
G|----------------12-14\-|
D|-----------------------|
A|-----------------------|
E|-----------------------|


...maa           muzuri mamaaaa           muzuri mamaaaaa          muzuri mamaaaaa       na  tabsamu lako maua
e|---------------13-17-13-|---------------12-15-12-|------------------------|---------------12-15-12-|
B|------------13----------|------------13----------|---------------12-15-12-|------------13----------|
G|-/14-14-14--------------|-/14-14-14--------------|-/14-14-14--12----------|-/14-14-14--------------|
D|------------------------|------------------------|------------------------|------------------------|
A|------------------------|------------------------|------------------------|------------------------|
E|------------------------|------------------------|------------------------|------------------------|


...aaa           muzuri mamaaaa           muzuri mamaaaaa          muzuri mamaaaaa
e|---------------13-17-13-|---------------12-15-12-|------------------------|
B|------------13----------|------------13----------|---------------12-15-12-|
G|-/14-14-14--------------|-/14-14-14--------------|-/14-14-14--12----------|
D|------------------------|------------------------|------------------------|
A|------------------------|------------------------|------------------------|
E|------------------------|------------------------|------------------------|


              na sura yako muzuri    mamaaa
e|-------------------------------------|
B|-------------------------------------|
G|-14-14-14-14-14-14-14-14-14-14-14-14-|
D|-------------------------------------|
A|-------------------------------------|
E|-------------------------------------|


...aaa          muzuri mamaaaa           muzuri mamaaaaa          muzuri mamaaaaa       na  tabsamu lako maua
e|--------------13-17-13-|---------------12-15-12-|------------------------|---------------12-15-12-|
B|-----------13----------|------------13----------|---------------12-15-12-|------------13----------|
G|-/14-14-14-------------|-/14-14-14--------------|-/14-14-14--12----------|-/14-14-14--------------|
D|-----------------------|------------------------|------------------------|------------------------|
A|-----------------------|------------------------|------------------------|------------------------|
E|-----------------------|------------------------|------------------------|------------------------|


...aaa          muzuri mamaaaa           muzuri mamaaaaaaaaaaaaa         
e|--------------13-17-13-|---------------12-15-12-|------------------------|
B|-----------13----------|------------13----------|---------------12-15-12-|
G|-/14-14-14-------------|-/14-14-14--------------|-/14-14-14--12----------|
D|-----------------------|------------------------|------------------------|
A|-----------------------|------------------------|------------------------|
E|-----------------------|------------------------|------------------------|

...aaaaaa
e|-----17-17----------------17-17-|-----17-17----------------17-17-|-----17-17----------------17-17-|
B|--------------------------------|--------------18-18-------------|--------------18-18-------------|
G|-/14-------14-17-17---/14-------|-/14-------14---------/14-------|-/14-------14----------/14------|
D|--------------------------------|--------------------------------|--------------------------------|
A|--------------------------------|--------------------------------|--------------------------------|
E|--------------------------------|--------------------------------|--------------------------------|


e|----13----12--------------------|
B|-15----15----15-13-12h13--------|
G|-------------------------12-14\-|
D|--------------------------------|
A|--------------------------------|
E|--------------------------------|

 
..u ushakubali umenikalia chapati nitakulinda kama polisi.....
e|-15/17--------|-15/17--------|-15/17--------|-15/17--------|
B|--------13/15-|--------13/15-|--------13/15-|--------13/15-|
G|--------------|--------------|--------------|--------------|
D|--------------|--------------|--------------|--------------|
A|--------------|--------------|--------------|--------------|
E|--------------|--------------|--------------|--------------|


..u ushakubali umenikalia chapati ....... .itabidi nikumarry na sura yako muzuri mamaaa
e|-15/17--------|-15/17--------|-15/17--------|-15/17--15/17-|
B|--------13/15-|--------13/15-|--------13/15-|--------------|
G|--------------|--------------|--------------|--------------|
D|--------------|--------------|--------------|--------------|
A|--------------|--------------|--------------|--------------|
E|--------------|--------------|--------------|--------------|


...maa             muzuri mamaaaa             muzuri mamaaaaa            muzuri mamaaaaa   na  tabasamu lako...
e|-----------------13-17-13-|-----------------12-15-12-|--------------------------|-----------------12-15-12-|
B|--------------13----------|--------------13----------|-----------------12-15-12-|--------------13----------|
G|-/14-14-14-14-------------|-/14-14-14-14-------------|-/14-14-14-14-12----------|-/14-14-14-14-------------|
D|--------------------------|--------------------------|--------------------------|--------------------------|
A|--------------------------|--------------------------|--------------------------|--------------------------|
E|--------------------------|--------------------------|--------------------------|--------------------------|


...aaa             muzuri mamaaaa             muzuri mamaaaaa            muzuri mamaaaaa
e|-----------------13-17-13-|-----------------12-15-12-|--------------------------|
B|--------------13----------|--------------13----------|-----------------12-15-12-|
G|-/14-14-14-14-------------|-/14-14-14-14-------------|-/14-14-14-14-12----------|
D|--------------------------|--------------------------|--------------------------|
A|--------------------------|--------------------------|--------------------------|
E|--------------------------|--------------------------|--------------------------|


                       na figure yako kama ya chupaaaaaa
e|-----17-17-|-----17-17-|-----17-17-|-----17-17-|
B|-----------|-----------|-----------|-----------|
G|-/14-------|-/14-------|-/14-------|-/14-------|
D|-----------|-----------|-----------|-----------|
A|-----------|-----------|-----------|-----------|
E|-----------|-----------|-----------|-----------|


...maa             muzuri mamaaaa             muzuri mamaaaaa            muzuri mamaaaaa         na  sura yako..
e|-----------------13-17-13-|-----------------12-15-12-|--------------------------|-----------------12-15-12-|
B|--------------13----------|--------------13----------|-----------------12-15-12-|--------------13----------|
G|-/14-14-14-14-------------|-/14-14-14-14-------------|-/14-14-14-14-12----------|-/14-14-14-14-------------|
D|--------------------------|--------------------------|--------------------------|--------------------------|
A|--------------------------|--------------------------|--------------------------|--------------------------|
E|--------------------------|--------------------------|--------------------------|--------------------------|


...aaa             muzuri mamaaaa             muzuri mamaaaaaaaaaa
e|-----------------13-17-13-|-----------------12-15-12-|--------------------------|
B|--------------13----------|--------------13----------|-----------------12-15-12-|
G|-/14-14-14-14-------------|-/14-14-14-14-------------|-/14-14-14-14-12----------|
D|--------------------------|--------------------------|--------------------------|
A|--------------------------|--------------------------|--------------------------|
E|--------------------------|--------------------------|--------------------------|


...aaa    piga densi kodogoo   piga de         piga densi kidogoooo
e|-----17-17-----17-17---------------17-17-|-----17-17---------------17-17-|
B|-----------------------------------------|-------------------------------|
G|-/14-------/14-------14-17-17--/14-------|-/14-------14-18-18--/14-------|
D|-----------------------------------------|-------------------------------|
A|-----------------------------------------|-------------------------------|
E|-----------------------------------------|-------------------------------|


densi kidogooo       piga de           piga densi kidogoo        densi kidogooo       piga de          
e|-----17-17---------------17-17-|-----17-17---------------17-17-|-----17-17---------------17-17-|
B|-------------------------------|-------------------------------|-------------------------------|
G|-/14-------14-17-17--/14-------|-/14-------14-17-17--/14-------|-/14-------14-17-17--/14-------|
D|-------------------------------|-------------------------------|-------------------------------|
A|-------------------------------|-------------------------------|-------------------------------|
E|-------------------------------|-------------------------------|-------------------------------|


 piga densi kidogoo    densi kidogooo                             sura yako muzuri mamaaaaaaaaaaa
e|-----17-17---------------17-17-|-----17-17---------------17-17-|-17/20-20-20-20\17-17-17\12-12-12\8-|
B|--------------18-18------------|--------------18-18------------|------------------------------------|
G|-/14-------14--------/14-------|-/14-------14--------/14-------|------------------------------------|
D|-------------------------------|-------------------------------|------------------------------------|
A|-------------------------------|-------------------------------|------------------------------------|
E|-------------------------------|-------------------------------|------------------------------------|


...so     so     ye e-e    ye e-e ....     
e|-15--|--15---|----17-17-|----15-15-|----13-13-|---12-12-|
B|-----|-------|----------|----------|----------|---------|
G|-----|-------|-14-------|-12-------|-10-------|-9-------|
D|-----|-------|----------|----------|----------|---------|
A|-----|-------|----------|----------|----------|---------|
E|-----|-------|----------|----------|----------|---------|


..eee     muzuri mamaaaa             muzuri mamaaaaa            muzuri mamaaaaa         piga densi kidogooo ...
e|--------13-17-13-|-----------------12-15-12-|--------------------------|-----------------12-15-12-|
B|-----13----------|--------------13----------|-----------------12-15-12-|--------------13----------|
G|-/14-------------|-/14-14-14-14-------------|-/14-14-14-14-12----------|-/14-14-14-14-------------|
D|-----------------|--------------------------|--------------------------|--------------------------|
A|-----------------|--------------------------|--------------------------|--------------------------|
E|-----------------|--------------------------|--------------------------|--------------------------|


...aaa             muzuri mamaaaa             muzuri mamaaaaa            muzuri mamaaa
e|-----------------13-17-13-|-----------------12-15-12-|--------------------------|
B|--------------13----------|--------------13----------|-----------------12-15-12-|
G|-/14-14-14-14-------------|-/14-14-14-14-------------|-/14-14-14-14-12----------|
D|--------------------------|--------------------------|--------------------------|
A|--------------------------|--------------------------|--------------------------|
E|--------------------------|--------------------------|--------------------------|


                    na figure yako kama ya chupaaaaaa (piga densi)
e|-----17-17-|-----17-17-|-----17-17-|-----17-17-|
B|-----------|-----------|-----------|-----------|
G|-/14-------|-/14-------|-/14-------|-/14-------|
D|-----------|-----------|-----------|-----------|
A|-----------|-----------|-----------|-----------|
E|-----------|-----------|-----------|-----------|


...maa             muzuri mamaaaa             muzuri mamaaaaa            muzuri mamaaaaa     na  tabasamu lako..
e|-----------------13-17-13-|-----------------12-15-12-|--------------------------|-----------------12-15-12-|
B|--------------13----------|--------------13----------|-----------------12-15-12-|--------------13----------|
G|-/14-14-14-14-------------|-/14-14-14-14-------------|-/14-14-14-14-12----------|-/14-14-14-14-------------|
D|--------------------------|--------------------------|--------------------------|--------------------------|
A|--------------------------|--------------------------|--------------------------|--------------------------|
E|--------------------------|--------------------------|--------------------------|--------------------------|


...aaa             muzuri mamaaaa             muzuri mamaaaaaaaaaa
e|-----------------13-17-13-|-----------------12-15-12-|--------------------------|
B|--------------13----------|--------------13----------|-----------------12-15-12-|
G|-/14-14-14-14-------------|-/14-14-14-14-------------|-/14-14-14-14-12----------|
D|--------------------------|--------------------------|--------------------------|
A|--------------------------|--------------------------|--------------------------|
E|--------------------------|--------------------------|--------------------------|

             
                          niwee niwee
e|-----15/17----17/20----20\17----17\12-12-------|
B|-----------------------------------------13-15-|
G|-12--------14-------17-------14----------------|
D|-----------------------------------------------|
A|-----------------------------------------------|
E|-----------------------------------------------|


               niwee niwee                  niwee niwee
e|--------13-17-13-|-----------------12-15-12-|--------------------------|
B|-----13----------|--------------13----------|-----------------12-15-12-|
G|-/14-------------|-/14-14-14-14-------------|-/14-14-14-14-12----------|
D|-----------------|--------------------------|--------------------------|
A|-----------------|--------------------------|--------------------------|
E|-----------------|--------------------------|--------------------------|


                 dance
e|-----15/17----17/20----20\17----17\12-12-------|
B|-----------------------------------------13-15-|
G|-12--------14-------17-------14----------------|
D|-----------------------------------------------|
A|-----------------------------------------------|
E|-----------------------------------------------|


e|--------13-17-13-|-----------------12-15-12-|--------------------------|
B|-----13----------|--------------13----------|-----------------12-15-12-|
G|-/14-------------|-/14-14-14-14-------------|-/14-14-14-14-12----------|
D|-----------------|--------------------------|--------------------------|
A|-----------------|--------------------------|--------------------------|
E|-----------------|--------------------------|--------------------------|


e|----13----12--------------------|
B|-15----15----15-13-12h13--------|
G|-------------------------12-14\-|
D|--------------------------------|
A|--------------------------------|
E|--------------------------------|


************************************

| /   slide up
| \   slide down
| h   hammer-on
| p   pull-off
| ~   vibrato
| +   harmonic
| x   Mute note
| b   Bend
| pb  Pre-bend
| br  Bend release
| pbr Pre-bend release
| brb Bend release bend

************************************

            
            
Suggest correction
Creating personal tab
Creating personal tab
You can edit any tab online and save it as your Personal.

You can edit, replace or remove any tab part or add personal notes – all changes will be seen only by you.

Personal tabs can be accessed anytime from any device, even offline.
Learn more »
Give kudos to tab author, rate the tab!
1 2 3 4 5
comments
print report bad tab
guest
You may want to rate the tab now too:
select rating
Wanna post a correction for this tab? Suggest correction