Oops, an error
Loading. Please wait.

The Vast Spoils Of America tab

version 2
version 2

Whole song

1,145 views 1 this week
3 commentsread comments
1 2 3 4 5
2 more votes to show rating
add to favorites
×
Save as Personal and add changes to this tab that will be seen only by you. Learn more ›
×
You can save this tab as Personal to edit and correct it or add notes. All changes will be seen only by you. Learn more »
launch autoscroll
font size
0
reset
how to read this tab
guitar tuner
edit
Autoscroll
slow
fast
+/-
esc
set tempo
stop
Author
-------------------------------------------------------------------------------
                             the vast spoils of america - saves the day
-------------------------------------------------------------------------------
Tabbed by: TheTroy
Tuning: Half Step down

intro
eb|---------------------------------------------------------------------------|
Bb|---------------------------------------------------------------------------|
Gb|-9-9---7/9\7-7-------------------------------------------------------------|
Db|-x-x---x/x\x-x-------------------------------------------------------------|
Ab|-7-7---5/7\5-5-------------------------------------------------------------|
Eb|-0-0-----------------------------------------------------------------------|

verse (palm mute when needed) (exact strum pattern not shown)
eb|---------------------------------------------------------------------------|
Bb|---------------------------------------------------------------------------|
Gb|-------------7-7-7-7-77--------------5-5-5-5-55----------------------------|
Db|-6-7-6-7-67--7-7-7-7-77--5-5-5-5-55--5-5-5-5-55----------------------------|
Ab|-7-7-7-7-77--5-5-5-5-55--5-5-5-5-55--3-3-3-3-33----------------------------|
Eb|-------------------------3-3-3-3-33----------------------------------------|

CHORUS (on second time, replace the slides with a mute
 by putting your finger right over the 5th fret bar)

eb|---------------------------------------------------------------------------|
Bb|---------------------------------------------------------------------------|
Gb|------7/9\7-7------2-----5----5------9\7-7-9-9-----------------------------|
Db|-2-2--x/x\x-7-X16--2-X7--5-X8-5-X15--x\x-x-x-x-----------------------------|
Ab|-2-2--5/7\5-5------0-----2----3------7\5-5-7-7-----------------------------|
Eb|-0-0-----------------------------------------------------------------------|

play verse

play chorus

end of chorus into pre bridge (no strum pattern shown)
eb|---------------------------------------------------------------------------|
Bb|---------------------------------------------------------------------------|
Gb|--5-4-2--5--5--7--9--11-12-------------------------------------------------|
Db|--5-4-2--5--5--7--9--11-12-------------------------------------------------|
Ab|--3-2-0--2--3--5--7--9--10-------------------------------------------------|
Eb|---------------------------------------------------------------------------|

play verse

play chorus

outro guitar 1 (play the verse chords just strum continuously)

outro solo guitar 2 (listen for timeing) (r= return bend)
eb|--------------------------10~-----10-10--10~-----10-10---------------------|
Bb|-5~--7~--8~--10~--12~-13~-13b15~-r13p12--13b15~-r13p12-12~-10~-8p7h8~-7~---|
Gb|---------------------------------------------------------------------------|
Db|---------------------------------------------------------------------------|
Ab|---------------------------------------------------------------------------|
Eb|---------------------------------------------------------------------------|

eb|---------------------------------------------------------------------------|
Bb|-0~-5~~~~------------------------------------------------------------------|
Gb|---------------------------------------------------------------------------|
Db|---------------------------------------------------------------------------|
Ab|---------------------------------------------------------------------------|
Eb|---------------------------------------------------------------------------|



END


| /  slide up
| \  slide down
| h  hammer-on
| p  pull-off
| ~  vibrato
| +  harmonic
| x  Mute note
===============================================================================

            
            
Suggest correction
Creating personal tab
Creating personal tab
You can edit any tab online and save it as your Personal.

You can edit, replace or remove any tab part or add personal notes – all changes will be seen only by you.

Personal tabs can be accessed anytime from any device, even offline.
Learn more »
Give kudos to tab author, rate the tab!
1 2 3 4 5
comments
print report bad tab
3 comments total.
0 reply
PdMeasles 51 Mar 05, 2009 04:13 AM

this tab is wrong. i mean in tuning. it shgould be tuned a half step down. it sounds so much more correct that way.

0 reply
zcox 104 Mar 12, 2014 02:44 PM, edited at 06:46 pm

Try this on for size. The 6 on the D string is in the wrong key and I think this sounds better.eb/-------------------------------------------------------bb/------------------------------------------------------f#/-----------------------------------------------------c#/-222-4-22-5-2222-4-2-5-2--000-4-00-5-0000-4-0-5-0----g#/-222-2-22-2-2222-2-2-2-2--000-0-00-0-0000-0-0-0-0----eb/-000-0-00-0-0000-0-0-0-0-----------------------------eb/-------------------------------------------------------bb/------------------------------------------------------f#/--------------------------555-5-55-5-5555-5-5-5-5----c#/-555-4-55-5-5555-4-5-5-5--555-4-55-5-5555-4-5-5-5----g#/-555-5-55-5-5555-5-5-5-5--333-3-33-3-3333-3-3-3-3----eb/-333-3-33-3-3333-3-3-3-3-----------------------------There is palm muting sporadically I don't have a guitar in front of me but you can figure it out. The only real difference is it sounds like the note that goes back and forth is F# to G.

0 reply
zcox 104 Mar 12, 2014 02:47 PM

eb/-------------------------------------------------------
bb/------------------------------------------------------
f#/-----------------------------------------------------
c#/-222-4-22-5-2222-4-2-5-2--000-4-00-5-0000-4-0-5-0----
g#/-222-2-22-2-2222-2-2-2-2--000-0-00-0-0000-0-0-0-0----
eb/-000-0-00-0-0000-0-00-0-----------------------------

eb/-------------------------------------------------------
bb/------------------------------------------------------
f#/--------------------------555-5-55-5-5555-5-5-5-5----
c#/-555-4-55-5-5555-4-5-5-5--555-4-55-5-5555-4-5-5-5----
g#/-555-5-55-5-5555-5-5-5-5--333-3-33-3-3333-3-3-3-3----
eb/-333-3-33-3-3333-3-3-3-3-----------------------------
Format fail

guest
You may want to rate the tab now too:
select rating
Wanna post a correction for this tab? Suggest correction