Oops, an error
Loading. Please wait.

Where Are You guitar pro

376 views 1 this week
5 commentsread comments
1 2 3 4 5
3 more votes to show rating
add to favorites
guitar tuner
Autoscroll
slow
fast
+/-
esc
set tempo
stop
"Where Are You"
demo version
Play now

or get full version for Free

×
Get full version now!
Learn and play this song
in Tab Pro
Try for free

or get $10 off Welcome Bonus

Get welcome bonus
Get access to Tab Pro version of “Where Are You”!
Tab Pro is a premium guitar tab service, available on PC, Mac, iOS and Android
TRY FOR FREE
To download “Where Are You” Guitar Pro tab click button below
Please note that you must have Guitar Pro software installed on your
computer in order to view this file.
Suggest correction
Give kudos to tab author, rate the tab!
1 2 3 4 5
comments
report bad tab
5 comments total. Showing first comments.
0 reply
Xero09 167 May 08, 2007 04:07 PM

I personally think some of Chris's parts are incorrect. The lead guitar sounds pretty good, I'm going to upload a powertab I made with the guitars. It's half way done, so feel free to add on to it.

0 reply
kresblain 300 May 09, 2007 11:24 AM

yeah man, you're right, chris' parts are incorrect, i've corrected it in the a new tab but the site denied it for some reason and they wouldn't get rid of this one. but yeah, i'd like to see your version =)

0 reply
kresblain 300 May 09, 2007 11:33 AM

this is what i have for chris:

eb|-----------4---4-5-5-5-5---------|
Bb|-9-9-9-9---5---5-7-7-7-7---7---7-|
Gb|-9-9-9-9---4---4-6-6-6-6---7---7-| x2
Db|-7-7-7-7---6---6-7-7-7-7---6---6-|
Ab|-9-9-9-9---4---4-5-5-5-5---7---7-|
Eb|---------------------------------|

eb|-----------4---4-5-5-5-5-------------------------5-5-5-|
Bb|-9-9-9-9---5---5-7-7-7-7---7---7-7-7-7-7---7---7-7-7-7-|
Gb|-9-9-9-9---4---4-6-6-6-6---7---7-6-6-6-6---6---6-6-6-6-|
Db|-7-7-7-7---6---6-7-7-7-7---6---6-7-7-7-7---7---7-7-7-7-|
Ab|-9-9-9-9---4---4-5-5-5-5---7---7-6-6-6-6---6---6-5-5-5-|
Eb|-------------------------------------------------------|

guest
You may want to rate the tab now too:
select rating