Oops, an error
Loading. Please wait.

Replacement Driver tab

148 views 1 this week
no commentswrite comment
1 2 3 4 5
3 more votes to show rating
add to favorites
×
Save as Personal and add changes to this tab that will be seen only by you. Learn more ›
×
You can save this tab as Personal to edit and correct it or add notes. All changes will be seen only by you. Learn more »
launch autoscroll
font size
0
reset
how to read this tab
guitar tuner
edit
Autoscroll
slow
fast
+/-
esc
set tempo
stop
Author
Difficulty
My first tab so it may not be entirely accurate, feel free to edit as you see fit! :)


[Intro]
e|--------------------------|--------------------------|
B|--------------0-----------|--------------0-----------|
G|--------0--------0-----0--|--------0--------0-----0--|
D|-----2-----2--------2-----|-----2-----2--------2-----|
A|--------------------------|--------------------------|
E|--0-----------------------|--0-----------------------|

e|--------------------------|--------------------------|
B|--------------0-----------|--------------0-----------|
G|--------0--------0-----0--|--------0--------0-----0--|
D|-----2-----2--------2-----|-----2-----2--------2-----|
A|--------------------------|--------------------------|
E|--0-----------------------|--0-----------------------|

e|--------------------------|--------------------------|
B|--------------0-----------|--------------0-----------|
G|--------0--------0-----0--|--------0--------0-----0--|
D|-----0-----0--------0-----|-----0-----0--------0-----|
A|--------------------------|--------------------------|
E|--3-----------------------|--3-----------------------|

e|--------------------------|--------------------------|
B|--------------0-----------|--------------0-----------|
G|--------0--------0-----0--|--------0--------0-----0--|
D|-----0-----0--------0-----|-----0-----0--------0-----|
A|--------------------------|--------------------------|
E|--3-----------------------|--3-----------------------|   

e|--------------------------|--------------------------|
B|--------------0-----------|--------------------------|
G|--------0--------0--------|--------0--------0-----0--|
D|-----2-----2--------2-----|-----2--------------------|
A|--------------------------|--------------------------|
E|--0-----------------------|--0-----------------------|

[Verse]
e|--------------------------|--------------------------|
B|--------------0-----------|--------------0-----------|
G|--------0--------0-----0--|--------0--------0-----0--|
D|-----2-----2--------2-----|-----2-----2--------2-----|
A|--------------------------|--------------------------|
E|--0-----------------------|--0-----------------------|

e|--------------------------|--------------------------|
B|--------------0-----------|--------------0-----------|
G|--------0--------0-----0--|--------0--------0-----0--|
D|-----0-----0--------0-----|-----0-----0--------0-----|
A|--------------------------|--------------------------|
E|--3-----------------------|--3-----------------------|

e|--------------------------|--------------------------|
B|--------------0-----------|--------------0-----------|
G|--------0--------0-----0--|--------0--------0-----0--|
D|-----0-----0--------0-----|-----0-----0--------0-----|
A|--------------------------|--------------------------|
E|--3-----------------------|--3-----------------------|

e|--------------------------|--------------------------|
B|--------------0-----------|--------------0-----------|
G|--------0--------0-----0--|--------0--------0-----0--|
D|-----2-----2--------2-----|-----2-----2--------2-----|
A|--3-----------------------|--3-----------------------|
E|--------------------------|--------------------------|

e|--------------------------|--------------------------|
B|--------------0-----------|--------------0-----------|
G|--------0--------0-----0--|--------0--------0-----0--|
D|-----2-----2--------2-----|-----2-----2--------2-----|
A|--3-----------------------|--3-----------------------|
E|--------------------------|--------------------------|

e|--------------------------|--------------------------|
B|--------------0-----------|--------------0-----------|
G|--------0--------0-----0--|--------0--------0-----0--|
D|-----0-----0--------0-----|-----0-----0--------0-----|
A|--------------------------|--------------------------|
E|--3-----------------------|--3-----------------------|

e|--------------------------|--------------------------|
B|--------------0-----------|--------------0-----------|
G|--------0--------0-----0--|--------0--------0-----0--|
D|-----0-----0--------0-----|-----0-----0--------0-----|
A|--------------------------|--------------------------|
E|--3-----------------------|--3-----------------------|

e|--------------------------|--------------------------|
B|--------------0-----------|--------------0-----------|
G|--------0--------0-----0--|--------0--------0-----0--|
D|-----2-----2--------2-----|-----2-----2--------2-----|
A|--------------------------|--------------------------|
E|--0-----------------------|--0-----------------------|

e|--------------------------|--------------------------|
B|--------------0-----------|--------------0-----------|
G|--------0--------0-----0--|--------0--------0-----0--|
D|-----2-----2--------2-----|-----2-----2--------2-----|
A|--------------------------|--------------------------|
E|--0-----------------------|--0-----------------------|

e|--------------------------|--------------------------|
B|--------------0-----------|--------------0-----------|
G|--------0--------0-----0--|--------0--------0-----0--|
D|-----0-----0--------0-----|-----0-----0--------0-----|
A|--------------------------|--------------------------|
E|--3-----------------------|--3-----------------------|

e|--------------------------|--------------------------|
B|--------------0-----------|--------------0-----------|
G|--------0--------0-----0--|--------0--------0-----0--|
D|-----0-----0--------0-----|-----0-----0--------0-----|
A|--------------------------|--------------------------|
E|--3-----------------------|--3-----------------------|

e|--------------------------|--------------------------|
B|--------------0-----------|--------------0-----------|
G|--------0--------0-----0--|--------0--------0-----0--|
D|-----2-----2--------2-----|-----2-----2--------2-----|
A|--3-----------------------|--3-----------------------|
E|--------------------------|--------------------------|

e|--------------------------|--------------------------|
B|--------------0-----------|--------------0-----------|
G|--------0--------0-----0--|--------0--------0-----0--|
D|-----2-----2--------2-----|-----2-----2--------2-----|
A|--3-----------------------|--3-----------------------|
E|--------------------------|--------------------------|

e|--------------------------|--------------------------|
B|--------------0-----------|--------------0-----------|
G|--------0--------0-----0--|--------0--------0-----0--|
D|-----0-----0--------0-----|-----0-----0--------0-----|
A|--------------------------|--------------------------|
E|--3-----------------------|--3-----------------------|

e|--------------------------|--------------------------|
B|--------------0-----------|--------------0-----------|
G|--------0--------0-----0--|--------0--------0-----0--|
D|-----0-----0--------0-----|-----0-----0--------0-----|
A|--------------------------|--------------------------|
E|--3-----------------------|--3-----------------------|

e|--------------------------|--------------------------|
B|--------------0-----------|--------------0-----------|
G|--------0--------0-----0--|--------0--------0-----0--|
D|-----2-----2--------2-----|-----2-----2--------2-----|
A|--------------------------|--------------------------|
E|--0-----------------------|--0-----------------------|

e|--------------------------|--------------------------|
B|--------------0-----------|--------------0-----------|
G|--------0--------0-----0--|--------0--------0-----0--|
D|-----2-----2--------2-----|-----2-----2--------2-----|
A|--------------------------|--------------------------|
E|--0-----------------------|--0-----------------------|

e|--------------------------|--------------------------|
B|--------------0-----------|--------------0-----------|
G|--------0--------0-----0--|--------0--------0-----0--|
D|-----0-----0--------0-----|-----0-----0--------0-----|
A|--------------------------|--------------------------|
E|--3-----------------------|--3-----------------------|

e|--------------------------|--------------------------|
B|--------------0-----------|--------------0-----------|
G|--------0--------0-----0--|--------0--------0-----0--|
D|-----0-----0--------0-----|-----0-----0--------0-----|
A|--------------------------|--------------------------|
E|--3-----------------------|--3-----------------------|

e|--------------------------|--------------------------|
B|--------------0-----------|--------------0-----------|
G|--------0--------0-----0--|--------0--------0-----0--|
D|-----2-----2--------2-----|-----2-----2--------2-----|
A|--3-----------------------|--3-----------------------|
E|--------------------------|--------------------------|

e|--------------------------|--------------------------|
B|--------------0-----------|--------------0-----------|
G|--------0--------0-----0--|--------0--------0-----0--|
D|-----2-----2--------2-----|-----2-----2--------2-----|
A|--3-----------------------|--3-----------------------|
E|--------------------------|--------------------------|

e|--------------------------|--------------------------|
B|--------------0-----------|--------------0-----------|
G|--------0--------0-----0--|--------0--------0-----0--|
D|-----0-----0--------0-----|-----0-----0--------0-----|
A|--------------------------|--------------------------|
E|--3-----------------------|--3-----------------------|

e|--------------------------|--------------------------|
B|--------------0-----------|--------------0-----------|
G|--------0--------0-----0--|--------0--------0-----0--|
D|-----0-----0--------0-----|-----0-----0--------0-----|
A|--------------------------|--------------------------|
E|--3-----------------------|--3-----------------------|

e|--------------------------|--------------------------|
B|--------------0-----------|--------------0-----------|
G|--------0--------0-----0--|--------0--------0-----0--|
D|-----2-----2--------2-----|-----2-----2--------2-----|
A|--------------------------|--------------------------|
E|--0-----------------------|--0-----------------------|

e|--------------------------|--------------------------|
B|--------------0-----------|--------------0-----------|
G|--------0--------0-----0--|--------0--------0-----0--|
D|-----2-----2--------2-----|-----2-----2--------2-----|
A|--------------------------|--------------------------|
E|--0-----------------------|--0-----------------------|

e|--------------------------|--------------------------|
B|--------------0-----------|--------------0-----------|
G|--------0--------0-----0--|--------0--------0-----0--|
D|-----0-----0--------0-----|-----0-----0--------0-----|
A|--------------------------|--------------------------|
E|--3-----------------------|--3-----------------------|

e|--------------------------|--------------------------|
B|--------------------------|--------------------------|
G|--------------------------|--------------------------|
D|--------------------------|--------------------------|
A|--------------------------|--------------------------|
E|--3-----------------------|--------------------------|

[Chours]
e|--------------------------------------------------|
B|--------------------------------------------------|
G|--------------------------------------------------|
D|--------0-----------0-----------0-----------0-----|
A|--5--5-----5--5--5-----5--5--5-----5--5--5-----0--|
E|--------------------------------------------------|

e|--------------------------------------------------|
B|--------------------------------------------------|
G|--------------------------------------------------|
D|--------0-----------0-----------0-----------0-----|
A|--2--2-----2--2--2-----2--2--2-----2--2--2-----2--|
E|--------------------------------------------------|

e|--------------------------------------------------|
B|--------------------------------------------------|
G|--------------------------------------------------|
D|--------0-----------0-----------0-----------0-----|
A|--0--0-----0--0--0-----0--0--0-----0--0--0--------|
E|-----------------------------------------------2--|

e|--------------------------------------------------|
B|--------------------------------------------------|
G|--------------------------------------------------|
D|--------0-----------0-----------0-----------0-----|
A|--------------------------------------------------|
E|--3--3-----3--3--3-----3--3--3-----3--5--5-----5--|

e|--------------------------------------------------|
B|--------------------------------------------------|
G|--------------------------------------------------|
D|--------0-----------0-----------0-----------0-----|
A|--5--5-----5--5--5-----5--5--5-----5--5--5-----0--|
E|--------------------------------------------------|

e|--------------------------------------------------|
B|--------------------------------------------------|
G|--------------------------------------------------|
D|--------0-----------0-----------0-----------0-----|
A|--2--2-----2--2--2-----2--2--2-----2--2--2-----2--|
E|--------------------------------------------------|

e|--------------------------------------------------|
B|--------------------------------------------------|
G|--------------------------------------------------|
D|--------0-----------0-----------0-----------0-----|
A|--0--0-----0--0--0-----0--0--0-----0--0--0--------|
E|-----------------------------------------------2--|

e|--------------------------------------------------|
B|--------------------------------------------------|
G|--------------------------------------------------|
D|--------0-----------0-----------0-----------0-----|
A|--------------------------------------------------|
E|--3--3-----3--3--3-----3--3--3-----3--3--3-----3--|

e|--------------------------------------------------|
B|--------------------------------------------------|
G|--------------------------------------------------|
D|--------0-----------0-----------0-----------0-----|
A|--5--5-----5--5--5-----5--5--5-----5--5--5-----0--|
E|--------------------------------------------------|

e|--------------------------------------------------|
B|--------------------------------------------------|
G|--------------------------------------------------|
D|--------0-----------0-----------0-----------0-----|
A|--2--2-----2--2--2-----2--2--2-----2--2--2-----2--|
E|--------------------------------------------------|

e|--------------------------------------------------|
B|--------------------------------------------------|
G|--------------------------------------------------|
D|--------0-----------0-----------0-----------0-----|
A|--0--0-----0--0--0-----0--5--5-----5--------------|
E|--------------------------------------2--2-----2--|

e|--------------------------------------------------|
B|--------------------------------------------------|
G|--------------------------------------------------|
D|--------0-----------0-----------0-----------0-----|
A|--------------------------------------------------|
E|--3--3-----3--3--3-----3--3--3-----3--3--3-----3--|

e|--------------------------------------------------|
B|--------------------------------------------------|
G|--------------------------------------------------|
D|--------0-----------0-----------0-----------0-----|
A|--5--5-----5--5--5-----5--5--5-----5--5--5-----0--|
E|--------------------------------------------------|

e|--------------------------------------------------|
B|--------------------------------------------------|
G|--------------------------------------------------|
D|--------0-----------0-----------0-----------0-----|
A|--2--2-----2--2--2-----2--2--2-----2--2--2-----2--|
E|--------------------------------------------------|

e|--------------------------------------------------|
B|--------------------------------------------------|
G|--------------------------------------------------|
D|--------0-----------0-----------0-----------0-----|
A|--0--0-----0--0--0-----0--5--5-----5--------------|
E|--------------------------------------2--2-----2--|

e|--------------------------------------------------|
B|--------------------------------------------------|
G|--------------------------------------------------|
D|--------0-----------0-----------0-----------0-----|
A|--------------------------------------------------|
E|--3--3-----3--3--3-----3--3--3-----3--3--3-----3--|


[Bridge]
    D                          Bb
e|--2-----------------------|--1-----------------------|
B|--3-----------------------|--2-----------------------|
G|--2-----------------------|--4-----------------------|
D|--------------------------|--4-----------------------|
A|--------------------------|--------------------------|
E|--------------------------|--------------------------|

    A                          F#m         G   
e|--0-----------------------|--------------------------|
B|--2-----------------------|--2-----------0-----------|
G|--2-----------------------|--2-----------0-----------|
D|--2-----------------------|--4-----------0-----------|
A|--------------------------|--4-----------2-----------|
E|--------------------------|--2-----------3-----------|

[Verse 2]
    Bm                               A
e|--1-1-1-1--1-1-1--1-1-1--1-1-1--|--0-0-0-0--0-0-0--0-0-0--0-0-0--|
B|--2-2-2-2--2-2-2--2-2-2--2-2-2--|--2-2-2-2--2-2-2--2-2-2--2-2-2--|
G|--4-4-4-4--4-4-4--4-4-4--4-4-4--|--2-2-2-2--2-2-2--2-2-2--2-2-2--|
D|--4-4-4-4--4-4-4--4-4-4--4-4-4--|--2-2-2-2--2-2-2--2-2-2--2-2-2--|
A|--------------------------------|--------------------------------|
E|--------------------------------|--------------------------------|

    D                                   G
e|--2-2-2-2-2-2-2-2-2-2-2-2-2-2-2-2--|-----------------------------------|
B|--3-3-3-3-3-3-3-3-3-3-3-3-3-3-3-3--|--0-0-0-0-0-0-0-0-0-0-0-0-0-0-0-0--|
G|--2-2-2-2-2-2-2-2-2-2-2-2-2-2-2-2--|--0-0-0-0-0-0-0-0-0-0-0-0-0-0-0-0--|
D|-----------------------------------|--0-0-0-0-0-0-0-0-0-0-0-0-0-0-0-0--|
A|-----------------------------------|--2-2-2-2-2-2-2-2-2-2-2-2-2-2-2-2--|
E|-----------------------------------|--2-2-2-2-2-2-2-2-2-2-2-2-2-2-2-2--|  x4

    Bm                            A
e|--1-1--1--1--1--1--1--1-1-1--|--0-0--0--0--0--0--0--0-0-0--|
B|--2-2--2--2--2--2--2--2-2-2--|--2-2--2--2--2--2--2--2-2-2--|
G|--4-4--4--4--4--4--4--4-4-4--|--2-2--2--2--2--2--2--2-2-2--|
D|--4-4--4--4--4--4--4--4-4-4--|--2-2--2--2--2--2--2--2-2-2--|
A|-----------------------------|-----------------------------|
E|-----------------------------|-----------------------------|

    D                          G
e|--2-----------------------|--------------------------|
B|--3-----------------------|--0-----------------------|
G|--2-----------------------|--0-----------------------|
D|--------------------------|--0-----------------------|
A|--------------------------|--2-----------------------|
E|--------------------------|--2-----------------------|

            
            
Suggest correction
Creating personal tab
Creating personal tab
You can edit any tab online and save it as your Personal.

You can edit, replace or remove any tab part or add personal notes – all changes will be seen only by you.

Personal tabs can be accessed anytime from any device, even offline.
Learn more »
Give kudos to tab author, rate the tab!
1 2 3 4 5
comments
print report bad tab
guest
You may want to rate the tab now too:
select rating
Wanna post a correction for this tab? Suggest correction