Oops, an error
Loading. Please wait.

A Walk Through Hell tab

version 2
version 2

Interactive

147,673 views 45 this week
16 commentsread comments
1 2 3 4 5
x 34
add to favorites
×
Save as Personal and add changes to this tab that will be seen only by you. Learn more ›
×
You can save this tab as Personal to edit and correct it or add notes. All changes will be seen only by you. Learn more »
launch autoscroll
font size
0
reset
how to read this tab
guitar tuner
edit
Autoscroll
slow
fast
+/-
esc
set tempo
stop
Author
Difficulty
-------------------------------------------------------------------------------
                         A WALK THROUGH HELL - Say Anything
-------------------------------------------------------------------------------
Tabbed by: Alex Worthy
Email: azimuth457@gmail.com

Tuning: EADGBe

I looked up tabs for this song a long time ago, and knowing say anything, they never use
tabs like in the tabs i found.
So, I saw Max Bemis playing it live(here, http://www.youtube.com/watch?v=PSQcUlOEBC0),
worked out the following tabs, meaning it might not be how it was recorded, but its
how he plays it live. Also, keep in mind that this is one of my first tabs, and my first 
posted for the net.

Verse(x2)
e|-------------------------------------------------------------------------------------|
B|-------------------------------------------------------------------------------------|
G|-----6--6-------6--6-----6--6-----6--6-----6--6----6--6-----6--6-----6--6-7-6--6-7-6-|
D|-----7--7-------7--7-----7--7-----7--7-----7--7----7--7-----7--7-----7--7-7-7--7-7-7-|
A|---------------------9-9------9-9------7-7------7-7-----5-5------5-5----5-5-5--5-5-5-|
E|-5-5---------5-5---------------------------------------------------------------------|

Prechorus 1(x2)
e|----------------------------------------------|
B|----------------------------------------------|
G|----------------------------------------------|
D|-----7---7-----7---7-----7---7----------------|
A|-5-5---5---4-4---4---------------------5h7----|
E|---------------------7-7---7---5-5-5h7--------|

Prechorus 2
e|------------------|------------------------|
B|------------------|------------------------|
G|------------------|-(after first time)-----|
D|-7-7---7-7---7----|----------7-------------|
A|-5-5---4-4---x----|----------x-------------|
E|-------------7----|----------7-------------|

Verse(x2)
Prechorus 1(x2)
Prechorus 2

Chorus(x2)
e|--x---x-x---x-x-x------x---2--x---x-x-x-----|
B|--x---x-x---x-x-x------x---2--x---x-x-x-----|
G|--9---9-9---9-9/11-----6---2--9---9-9/11----|
D|--7---7-6---7-7/9------7---4--6---7-7/9-----|
A|--5---9-7---7h9/11-----5---4--7---7h9/11----|
E|--x---x-x---x-x-x------x---2--x---x-x-x-----|

Prechorus 1(x4) (second time, before he sings, end it early)
Prechorus 2
Chorus(x4) (last time, end on the fourth last chord)

Outro(strumming shown)
e|-x--x-x----x-x--x-x--------------x---------|
B|-x--x-x----x-x--x-x--------------x---------|
G|-9--9-9----7-7--2-2-----------7--9---------|
D|-7--7-6----7-7--2-2--4-5-7-7h9---7---------|
A|-5--9-7----x-x--x-x--5-7-9-------5---------|
E|-x--x-x----7-7--2-2--------------x---------|

For the outro, i think he only plays the D string, and then slides, instead of using a
and he plays that last chord, but i like to end on the first chord played in the song(the
places your fingers should end up), i think it sounds better.

Thank you for your time, any questions or comments, you can email me.


| /  slide up
| \  slide down
| h  hammer-on
| p  pull-off
| ~  vibrato
| +  harmonic
| x  Mute note
===============================================================================

            
            
Suggest correction
Creating personal tab
Creating personal tab
You can edit any tab online and save it as your Personal.

You can edit, replace or remove any tab part or add personal notes – all changes will be seen only by you.

Personal tabs can be accessed anytime from any device, even offline.
Learn more »
comments
print report bad tab
16 comments total. Showing first comments.
0 reply
mushroom2 10 Mar 17, 2007 08:54 AM

dude this tabs is ****ing awesome

+1 reply
azimuth457 569 Mar 17, 2007 08:24 PM

why thank you good sir, i did my best.

0 reply
stumaster18 514 Jun 28, 2007 09:35 AM

good tab, but the chorus is kinda messy, and I dont really understand it.

guest
You may want to rate the tab now too:
select rating
Wanna post a correction for this tab? Suggest correction