Oops, an error
Loading. Please wait.

Belt bass

version 1
version 1

Whole song

Interactive

1,770 views 1 this week
2 commentsread comments
1 2 3 4 5
2 more votes to show rating
add to favorites
×
Save as Personal and add changes to this tab that will be seen only by you. Learn more ›
×
You can save this tab as Personal to edit and correct it or add notes. All changes will be seen only by you. Learn more »
launch autoscroll
font size
0
reset
guitar tuner
edit
Autoscroll
slow
fast
+/-
esc
set tempo
stop
Author
Difficulty
-------------------------------------------------------------------------------
                             Belt - Say Anything
-------------------------------------------------------------------------------

Tabbed By : dakota_s_
e-mail: dakota_s_@hotmail.com

Tuning:Standard

G|------------------------------------------------------------------------|
D|-----------24------------2------------24------------2-------------------|
A|-4-24-24-24----4-24-24-24-42--------24----4-24-24-24-42-----------------|
E|----------------------------0-00-00--------------------0000000000000000-|

G|-----------------------------------|
D|-------66-44444442-----------------|
A|-4~-3~-------------00-222-44444222-|
E|-----------------------------------|

G|-------------------------------------------------------------|
D|---66666666----6-6-6-6-6-6-44444442--------------------------|
A|-4~----------3~---------------------000222244444444444-2-2-2-|
E|-------------------------------------------------------------|

G|---------------------------------|
D|-2444--------------------2444----|
A|-----------2444-2444-2-2---------|
E|------4555--------------------45-|

G|--------------------------------------------------------------------|
D|--------------------------------------------------------------------|
A|-4-2-4-2-4-2----------------------4-2-4-2-4-2-----------------------|
E|-------------555-0-00-000-000-000-------------555-0-00-000-00000000-|

G|-------9999--------12121212-------9999------12121212------------------------|
D|--11----------11-------------11--------11-----------44444442----------------|
A|----11----------11-------------11--------11------------------00-22244444222-|
E|-9----9------9----9---------8----8----8----8--------------------------------|

G|----------------------------------------------------------------|
D|---------------6~---6--666642-24444442--------------------------|
A|-44-44-44-44-33---33--3------4---------000222244444444444-2*-2*-|
E|----------------------------------------------------------------|

G|-----------------------------------------------------------|
D|--4-444442----------------------------4-444442-------------|
A|---------- 0-00000-4-44442-4-44-2*-2*----------0-0000*0*0*-|
E|-----------------------------------------------------------|

G|-----------------------------------------------------------------|
D|---------44441111--------------------------44446666--------------|
A|-----------------0*000000-0*000000------------------0*0000000000-|
E|-00000000--------------------------00000000----------------------|

G|------------------------------------------------------------|
D|------------------------------------------------------------|
A|-2-2-44444444--2222200000000-000-2-2-44444444-2222200000000-|
E|------------------------------------------------------------|

G|-----------------------------|
D|-----------------------------|
A|-0~-2~-4~---rest-----4444222-|
E|-----------------------------|

G|------------------------------------------------------|
D|---------------6---6--666642-24444442-----------------|
A|-44-44-44-44-33--33--3------4--------0000222244444222-|
E|------------------------------------------------------|


G|---------------------------------------------------------------|
D|---------------------------------------44444442----------------|
A|-4-4*-4*-4*-4-4*-4*-4*-3-3*-3*-3*-3--3---------000222244444222-|
E|---------------------------------------------------------------|

G|-----------------------------------------------------------|
D|---------------------------------4444444477777777----------|
A|-44-444-444-444-433~-333-333-333-----------------444444444-|
E|-----------------------------------------------------------|

G|--------------------------------------------------------------|
D|-4-44-42*------------------------------4-44-42*---------------|
A|----------0-00-00*-4-44-42*-4-44-2*-2*----------0-00-0*-0*-0*-|
E|--------------------------------------------------------------|

G|-----------------------------------------------------------------|
D|---------44441111--------------------------44446666--------------|
A|-----------------0*000000-0*000000------------------0*0000000000-|
E|-00000000--------------------------00000000----------------------|

G|------------------------------------------------------------|
D|------------------------------------------------------------|
A|-2-2-44444444--2222200000000-000-2-2-44444444-2222200000000-|
E|------------------------------------------------------------|


G|---4----4----4----4---4---4----4----4----4---4-|
D|-----------2----2--4/6------------2----2--4/6--|
A|-4----0-----------------4----0-----------------|
E|-----------------------------------------------|

G|---4----4----4----4---4---4----4---4------|
D|-----------2----2--4/6------------2-2-----|
A|-4----0-----------------4----0-------0022-|
E|------------------------------------------|

G|------------------------------------------------------|
D|------------------------------------------------------|
A|-44-00-------44-00-------44-00-------44440000---------|
E|-------00-00-------00-00-------00-00---------00000000-|

G|---------------------------------------------------------------------|
D|---------------------------------------------------------------------|
A|-4-440000------02-4-440000------02-4-440000------02-4-440000---------|
E|---------0-0002-----------0-0002-----------0-0002-----------00000000-|

G|----------------------------------------------------------------|
D|----------------------------------------------------------------|
A|-44440000--------44440000--------44440000--------44440*-0*-0*---|
E|---------00000000--------00000000--------00000000------------0~-|

            
            
Suggest correction
Creating personal tab
Creating personal tab
You can edit any tab online and save it as your Personal.

You can edit, replace or remove any tab part or add personal notes – all changes will be seen only by you.

Personal tabs can be accessed anytime from any device, even offline.
Learn more »
Give kudos to tab author, rate the tab!
1 2 3 4 5
comments
print report bad tab
2 comments total.
0 reply
dakota_s_ 277 Mar 13, 2012 10:11 AM

For some reason the first time I posted this it only posted a third of the song. I have it updating as of right now to include the whole thing.

0 reply
dakota_s_ 277 Apr 01, 2012 09:12 PM

Whole thing is updated.

guest
You may want to rate the tab now too:
select rating
Wanna post a correction for this tab? Suggest correction