Oops, an error
Loading. Please wait.

Every Man Has A Molly bass

version 1
version 1

Whole song

Interactive

6,283 views 6 this week
no commentswrite comment
1 2 3 4 5
x 5
add to favorites
×
Save as Personal and add changes to this tab that will be seen only by you. Learn more ›
×
You can save this tab as Personal to edit and correct it or add notes. All changes will be seen only by you. Learn more »
launch autoscroll
font size
0
reset
guitar tuner
edit
Autoscroll
slow
fast
+/-
esc
set tempo
stop
Difficulty
Song: Every Man Has A Molly
Artist: Say Anything
Album:...Is A Real Boy


INTRO: guitar finger pick with bass overlay.

G|-------------------------------------------------------------------------|
D|-0~--2~-----------2~----------------------------------------------0~--2~-|
A|--------0~--------------------2~-------------------2~--------------------|
E|-----------------------------------------2~----------------2~------------|
   Here i am laying bare at the end of my rope. I've lost all hope. so long!

G|----------------------------------------------------------------------------|
D|-----------------2~------------------------0~---2~--------------------------|
A|-------0~-------------2~------------------------------------------------0~--|
E|-----------------------------------2~---------------------------------------|
  Molly Connelly just broke up with me over the revealing nature of the songs

G|-----------------------------------------------------------------------|
D|-0~--2~----------------2~------------------------------------0~------2~|
A|--------------0~---------------2~----------------2~--------------------|
E|----------------------------------------2~---------------2~------------|
   You goddamn kids had best be gracious with the merch money you spend

G|---------------------------------------------------------------------|
D|----------------------2~--------------------------0~-----2~~~--------|
A|----------------0~------------2~-------------------------------------|
E|-----------------------------------------2~--------------------------|
   'cause for you I won’t ever have rough sex with Molly Connolly again.


VERSE:
   ...laid down
G|-------------------------------------------------------------------|
D|-------------------------------------------------------------------|
A|-------------------------------------------------5-5-5-5-7/9-9-9-9-|
E|-5-5-5-5-0-0-0-0-7-7-7-7-2-2-2-2-7-7-7-7-2-2-2-2-------------------|

G|-------------------------------------------------------------------|
D|-------------------------------------------------------------------|
A|---------------------------------5-5-5-5-7-7-7-7---------5-5-7-7---|
E|-5-5-5-5-0-0-0-0-7-7-7-7-2-2-2-2-----------------5-5-5-5-----------|

G|-------------------------------------------------------------------|
D|-------------------------------------------------------------------|
A|-------------------------------------------------5-5-5-5-7/9-9-9-9-|
E|-5-5-5-5-0-0-0-0-7-7-7-7-2-2-2-2-7-7-7-7-2-2-2-2-------------------|

G|-------------------------------------------------------------------|
D|-------------------------------------------------------------------|
A|---------------------------------5-5-5-5-7-7-7-7-------------------|
E|-5-5-5-5-0-0-0-0-7-7-7-7-2-2-2-2-----------------5-5-5-5-5-5-5-5-5-|

CHORUS/INTERLUDE:
   
G|-------------------------------------------| |---------------|    
D|-------------------------------------------| |---------------|   
A|-5-4-2--------------------5-4-2----------4-| |-5-4-2-2-2-2-2-| X2 
E|----------------2--------------------------| |------------2--|    
  i can't stop....              
                                               
G|---------------------------------------------|
D|---------------------------------------------|
A|-55-44-22-2-2-2-2-55-44-22-2-2-2-2-0-4-4-4-4-| X2
E|---------------2-----------------------------|


SOLO: same as verse ^^   

INTERLUDE: 

G|-------------------------|
D|-------------------------|
A|-------------------------| X2
E|-55-77-77-22-55-77-77-99-|      

OUTRO: same as the second part of the chorus/interlude 


um yeah. that should be it. any corrections just leave a comment.
thanx. and tell me how i did. this is my 2nd tab. ask if you want any other songs tabbed. 
peace.

               

            
            
Suggest correction
Creating personal tab
Creating personal tab
You can edit any tab online and save it as your Personal.

You can edit, replace or remove any tab part or add personal notes – all changes will be seen only by you.

Personal tabs can be accessed anytime from any device, even offline.
Learn more »
comments
print report bad tab
guest
Wanna post a correction for this tab? Suggest correction