Oops, an error
Loading. Please wait.

Its A Metaphor Fool bass

1,597 views 6 this week
3 commentsread comments
1 2 3 4 5
2 more votes to show rating
add to favorites
×
Save as Personal and add changes to this tab that will be seen only by you. Learn more ›
×
You can save this tab as Personal to edit and correct it or add notes. All changes will be seen only by you. Learn more »
launch autoscroll
font size
0
reset
guitar tuner
edit
Autoscroll
slow
fast
+/-
esc
set tempo
stop
Author
Difficulty
-----------------------------------------------------------------------------
			     IT'S A METAPHOR, FOOL - Say Anything
-----------------------------------------------------------------------------
This song is relatively easy, just listen through the whole thing and read
through this without a bass in your hand at least once, to get an idea of
the phrasing.


'This song is called;
it's a metaphor, fool!'

Acoustic guitar plays the chords through, bass joins in on last little phrase.

G|----------|
D|----------|
A|3-3-3-----|
E|------3-33|

*Short break*

'Sixteen names on my list
but none of them could ever get me high like this'

G|----------|R|---------|R|--------------|-----------------|
D|----------|E|---------|E|--------------|-----------------|
A|3-3-3-----|S|---------|S|----3-33------|-------3----3-3-3|
E|------3-33|T|---5-5---|T|----------4-44|-3-3------3------|

'Now let the fun begin, sing!'

G|--------------------|--------------------|
D|--------------------|--------------------|
A|--------------------|--------------------|
E|3333-3333-3333-3333-|555---555--5555-5555|

G|--------------------|--------------------|
D|--------------------|--------------------|
A|3333-3333-3333-3333-|-------3----3-3-3---|
E|--------------------|-3-33----3----------|

G|--------------------|--------------------|
D|--------------------|--------------------|
A|--------------------|--------------------|
E|3333-3333-3333-3333-|5555-5555--5-5--3-3-|

G|--------------------|--------------------|
D|--------------------|--------------------|
A|3-33-333------------|-------3------------|
E|----------4-44--444-|-3-33----3--3-333---|

*Short break*


'Woah (love like no other).
Woah (we told your mother).'

G|----------------------------------|----------------------------------|
D|----------------------------------|----------------------------------|
A|-3-33----3-33---3-33--------------|-3-33----3-33---3-33--------------|
E|------3-------3------3-3--5-5--333|------3-------3------3-3-5--5-333-|


'So here's the plan,
you're giving in to every sick demand'

G|----4--------7-------4-----4-----4--|
D|------------------------------------|REPEAT X2
A|------------------------------------|
E|-33-------33------33----33---333----|

'Here is your past,
flashing forward, out to whip your a**'

G|--------------------------------|
D|--------------------------------|
A|---------555-555-222-222-333----|
E|-333-333---------------------444|

G|-----------------|R|
D|-----------------|E|
A|---------555-555-|S|
E|-333-333---------|T|

Guitar solo:
G|----------------------------------|
D|----------------------------------|
A|-3-33----3-33---3-33--------------|REPEAT X2
E|------3-------3------3-3--5-5--333|

'Woah (love like no other).
Woah (we told your mother).'

G|----------------------------------|
D|----------------------------------|
A|-3-33----3-33---3-33--------------|REPEAT X3
E|------3-------3------3-3--5-5--333|


G|-----------------------------------|
D|-----------------------------------|
A|-3-33----3-33---3-33---------------|
E|------3-------3------3-5-5-5-5-55-3|

Bass only part:
'All you are to me is dead,
all you are to me is dead,
all you are to me is dead skin.'

G|---------------------------------------|
D|---------------------------------------|
A|---------------2222-0000-0000-3322-00--|
E|3333-3333-3333-----------------------33|


G|---------------------------------------|
D|---------------------------------------|
A|3333-3333------------------3----3-3-3--|
E|----------4444-4444-3333-----3---------|


*Short rest while the guitar plays the above riff*
Then join in again;

G|----|---------------------------------------|
D|----|---------------------------------------|
A|----|---------------2222-0000-0000-3322-00--|
E|3/15|3333-3333-3333-----------------------33|

G|------------------------------------|
D|------------------------------------|
A|3333-3333----------------3----3-3-3-|
E|----------4444-4444-3333---3--------|


G|---------------------------------------|
D|---------------------------------------|
A|---------------2222-0000-0000-3322-00--|
E|3333-3333-3333------------------------3|

G|------------------------------------|
D|------------------------------------|
A|3-33------------3--------3-3-3------|
E|-------4-44-3-3---3(hold)-------3/15|





Have fun!
It's a great little song to sing along with as well.

Any questions, comments, or corrections, see below.
Or e-mail me- james.culf@gmail.com

            
            
Suggest correction
Creating personal tab
Creating personal tab
You can edit any tab online and save it as your Personal.

You can edit, replace or remove any tab part or add personal notes – all changes will be seen only by you.

Personal tabs can be accessed anytime from any device, even offline.
Learn more »
Give kudos to tab author, rate the tab!
1 2 3 4 5
comments
print report bad tab
3 comments total.
-1 reply
AvantNeoPunk 190 Feb 08, 2011 01:03 PM

sounds pretty accurate =) except for the break =\ unless im following it wrong...XD

0 reply
jimm, ey? 31 Feb 09, 2011 11:19 AM

by break only do you mean this part? -
G|---------------------------------------|
D|---------------------------------------|
A|---------------2222-0000-0000-3322-00--|
E|3333-3333-3333-----------------------33|

0 reply
jimm, ey? 31 Feb 09, 2011 11:20 AM

oops, break*

guest
You may want to rate the tab now too:
select rating
Wanna post a correction for this tab? Suggest correction