Oops, an error
Loading. Please wait.

Metal Now tab

version 2
version 2

Whole song

781 views 1 this week
1 commentread comment
1 2 3 4 5
2 more votes to show rating
add to favorites
×
Save as Personal and add changes to this tab that will be seen only by you. Learn more ›
×
You can save this tab as Personal to edit and correct it or add notes. All changes will be seen only by you. Learn more »
launch autoscroll
font size
0
reset
how to read this tab
guitar tuner
edit
Autoscroll
slow
fast
+/-
esc
set tempo
stop
Difficulty
This isn't perfect but it's a good starting point.

Band:Say Anything
Album:...Was A Real Boy (Bonus disc with "...Is A Real Boy"
Song: Metal Now
Tabbed by Dustin C. (Hentai)


|--------------------------------------------------------------------------|
|--------------------------------------------------------------------------|
|---------------0-0-0-0-0-0--------------------2-2-2-2-2-------------------|
|-0-0-1-2--------------------------0-0-1-2---------------------------------|
|--------------------------------------------------------------------------|
|-------------------------------------------------------------------- -----|

|------------------------------|
|------------------------------|
|------------------------------|   x4 not sure on this part
|-0-0-0-----3-3--0-0-0---------|
|------------------------------|
|------------------------------|


Emailz me Guitartabs@haflmoon.com

            
            
Suggest correction
Creating personal tab
Creating personal tab
You can edit any tab online and save it as your Personal.

You can edit, replace or remove any tab part or add personal notes – all changes will be seen only by you.

Personal tabs can be accessed anytime from any device, even offline.
Learn more »
Give kudos to tab author, rate the tab!
1 2 3 4 5
comments
print report bad tab
1 comment total.
0 reply
MedicreDemon 60 Dec 30, 2006 01:51 AM

Well, you've got the right rythem but it's actually......
|---------------------------------------------------------|
|---------------------------------------------------------|
|---------------------------------------------------------|
|-------5555--------5-777--------5555---------------------|x4
|55-6-7------55-6-7-------55-6-7--------------------------|
|--------------------------------------888--555-----------|

guest
Wanna post a correction for this tab? Suggest correction