Oops, an error
Loading. Please wait.

Narcissus tab

version 2
version 2

Whole song

97 views 1 this week
no commentswrite comment
1 2 3 4 5
2 more votes to show rating
add to favorites
×
Save as Personal and add changes to this tab that will be seen only by you. Learn more ›
×
You can save this tab as Personal to edit and correct it or add notes. All changes will be seen only by you. Learn more »
launch autoscroll
font size
0
reset
how to read this tab
guitar tuner
edit
Autoscroll
slow
fast
+/-
esc
set tempo
stop
Author
Difficulty
[Verse]

e|------------3-----------------3--|----------------------------------------------|
B|------3p0-------------5p0--------|-----------------8------8--------7-----7------|
G|---------------------------------|-------------------0---------------0-----0----|
D|-------------------0-------0-----|----------------------------------------------|  x2
A|---3------3----------------------|-------------7-------7--------5--------5------|
E|---------------------------------|----------------------------------------------|

e|--------------------------------------------------------------------------------|
B|------8------8----------8\(3)----3--3--3----------------------------------------|
G|--------0-----------------------------------------------------------------------|
D|--------------------------------------------------------------------------------|
A|---7-------7----------7--\(2)----2--2--2----------------------------------------|
E|--------------------------------------------------------------------------------|

e|------------3-----------------3--|----------------------------------------------|
B|------3p0-------------5p0--------|-----------------8------8--------7-----7------|
G|---------------------------------|-------------------0---------------0-----0----|
D|-------------------0-------0-----|----------------------------------------------|  x2
A|---3------3----------------------|-------------7-------7--------5--------5------|
E|---------------------------------|----------------------------------------------|

e|--------------------------------------------------------------------------------|
B|------8--------8--8--8--7----------1-----1-------------------1-----1----3~------|
G|--------0------0--0--0--0----------2-----2------0-----0------2-----2----0~------|
D|-----------------------------------2-----2------2-----2------2-----2----0~------|
A|---7-------7---7--7--7--5-------0-----0---------2-----2---0-----0-------2~------|
E|---------------------------------------------0-----0----------------------------|

[Chorus]
e|----------------------------------------------|---------------------------------|
B|------8-----3-----3-----5-----------3-----2---|------------3--3--3--------------|
G|------9-----0-----0-----0-----2-----2-----2---|------------0--0--0--------------|
D|------9-----0-----0-----0-----2-----2-----2---|------------0--0--0--------------|  x2
A|------7-----2-----3-----5-----0-----0-----0---|------------3--3--3--------------|
E|----------------------------------------------|---------------------------------|

e|----------------------------------------------|---------------------------------|
B|------8-----3-----3-----5-----------3-----2---|--------3--3--3-----8\-----------|
G|------9-----0-----0-----0-----2-----2-----2---|--------0--0--0-----9\-----------|
D|------9-----0-----0-----0-----2-----2-----2---|--------0--0--0-----9\-----------|  x2
A|------7-----2-----3-----5-----0-----0-----0---|--------3--3--3-----7\-----------|
E|----------------------------------------------|---------------------------------|


[Verse]

e|---------------------------3------------------3-----------------3---------------|
B|------3p0-----------5p0----------------3p0--------------5p0---------------------|
G|--------------------------------------------------------------------------------|
D|-----------------0-------0--------------------------0--------0------------------|
A|---3--------------------------------3------3------------------------------------|
E|--------------------------------------------------------------------------------|

e|--------------------------------------------------------------------------------|
B|------8------8-------7-------7-------------8------8-------8\(3)---3--3--3-------|
G|--------0--------------0-------0-------------0----------------------------------|
D|--------------------------------------------------------------------------------|
A|---7-------7------5-------5-------------7-------7------7---\(2)---2--2--2-------|
E|--------------------------------------------------------------------------------|

e|-------------|------------------------------------------------------------------|
B|----3----5---|-------8----7----8------8--8--8---7~------------------------------|
G|----0----0---|-------0----0----0------0--0--0---0~------------------------------|
D|----0----0---|------------------------------------------------------------------|  x2
A|----3----5---|-------7----5----7------7--7--7---5~------------------------------|
E|-------------|------------------------------------------------------------------|

e|--------------------------------------------------------------------------------|
B|------------1-----1-------------------1-----1----3~----3--3--3------------------|
G|------------2-----2------0-----0------2-----2----0~----0--0--0------------------|
D|------------2-----2------2-----2------2-----2----0~----0--0--0------------------|
A|---------0-----0---------2-----2---0-----0-------2~----3--3--3------------------|
E|----------------------0-----0---------------------------------------------------|


[Chorus]

e|----------------------------------------------|---------------------------------|
B|------8-----3-----3-----5-----------3-----2---|------------3--3--3--------------|
G|------9-----0-----0-----0-----2-----2-----2---|------------0--0--0--------------|
D|------9-----0-----0-----0-----2-----2-----2---|------------0--0--0--------------|  x2
A|------7-----2-----3-----5-----0-----0-----0---|------------3--3--3--------------|
E|----------------------------------------------|---------------------------------|

e|----------------------------------------------|---------------------------------|
B|------8-----3-----3-----5-----------3-----2---|------------3--3--3--------------|
G|------9-----0-----0-----0-----2-----2-----2---|------------0--0--0--------------|
D|------9-----0-----0-----0-----2-----2-----2---|------------0--0--0--------------|  x2
A|------7-----2-----3-----5-----0-----0-----0---|------------3--3--3--------------|
E|----------------------------------------------|---------------------------------|


[Bridge]

e|--------------------------------------------------------------------------------|
B|----------------------------------------8-------8-------10-------10-------------|
G|--------0-------0-------0-------0-----0---0---0---0---0----0---0----0-----------|
D|------0---0---0---0---0---0---0---0---------------------------------------------|  x2
A|----2-------2-------3-------3-------7-------7-------9--------9------------------|
E|--------------------------------------------------------------------------------|

e|----------------------------------------------------------|---------------------|
B|----3---------------3---------------8---------------7-----|-----------3--3--3---|
G|----0---------------0---------------0---------------0-----|-----------0--0--0---|
D|----0---------------0-------------------------------------|-----------0--0--0---|  x2
A|----2---------------3---------------7---------------5-----|-----------3--3--3---|
E|----------------------------------------------------------|---------------------|


[Chorus]

e|----------------------------------------------|---------------------------------|
B|------8-----3-----3-----5-----------3-----2---|------------3--3--3--------------|
G|------9-----0-----0-----0-----2-----2-----2---|------------0--0--0--------------|
D|------9-----0-----0-----0-----2-----2-----2---|------------0--0--0--------------|  x2
A|------7-----2-----3-----5-----0-----0-----0---|------------3--3--3--------------|
E|----------------------------------------------|---------------------------------|


e|--------------------------------------------------------------------------------|
B|------8-----3-----3-----5-----------3-----2-------------------------------------|
G|------9-----0-----0-----0-----2-----2-----2-------------------------------------|
D|------9-----0-----0-----0-----2-----2-----2-------------------------------------|  x2
A|------7-----2-----3-----5-----0-----0-----0-------------------------------------|
E|--------------------------------------------------------------------------------|


[Outro]

e|--------------------------------------------------------------------------------|
B|------3--3--3--8------3--3--3--8-----3--3--3--8~--------------------------------|
G|------0--0--0--9------0--0--0--9-----0--0--0--9~--------------------------------|
D|------0--0--0--9------0--0--0--9-----0--0--0--9~--------------------------------|
A|------3--3--3--7------3--3--3--7-----3--3--3--7~--------------------------------|
E|--------------------------------------------------------------------------------|

************************************

| (n) Ghost note
| p   Pull-off
| \   Slide down

************************************

            
            
Suggest correction
Creating personal tab
Creating personal tab
You can edit any tab online and save it as your Personal.

You can edit, replace or remove any tab part or add personal notes – all changes will be seen only by you.

Personal tabs can be accessed anytime from any device, even offline.
Learn more »
Give kudos to tab author, rate the tab!
1 2 3 4 5
comments
print report bad tab
guest
You may want to rate the tab now too:
select rating
Wanna post a correction for this tab? Suggest correction