Oops, an error
Loading. Please wait.

Presidential Suite tab

version 1
version 1

Whole song

2,593 views 1 this week
no commentswrite comment
1 2 3 4 5
2 more votes to show rating
add to favorites
×
Save as Personal and add changes to this tab that will be seen only by you. Learn more ›
×
You can save this tab as Personal to edit and correct it or add notes. All changes will be seen only by you. Learn more »
launch autoscroll
font size
0
reset
how to read this tab
guitar tuner
edit
Autoscroll
slow
fast
+/-
esc
set tempo
stop
"Presidential Suite" by Say Anything
listen to this song at http://www.soundclick.com/bands/pagemusic.cfm?CurrentPage=2&bandID=88358
third from the bottom

it starts with one guitar
e |---------------------------------|
B |-2-------------------------------|
G |-2--------2-4/6/4-2-2------------|
D |-2----2h4------------------------|
A |-0-------------------------------|
E |---------------------------------|

2nd guitar comes in and plays same thing after 2x
soft chorus starts with one guitar:
"you've been led on..."
    A   E    
e |-----------------------------------|
B |-2---------------------------------|
G |-2---1----6----7----6--------------|
D |-2---2----6----7----6--------------|
A |-0---2----4----5----4--------------|
E |-----0-----------------------------|

with 2nd guitar adding at the turnaround:
e |------------------------------------|
B |------------------------------------|
G |------------------------------------|
D |-----------------7-------6-----6----|
A |--------------------7-------6-------|
E |------------------------------------|

verse: listen for strumming rhythms (changes noted in accordance with lyrics)
e |-------------------------------------------------------------------------|
B |-------------------------------------------------------------------------|
G |----4--------------------------------------------------------------------|
D |----4-----------------------------4---------------------------5----------|
A |----2-----------------------------4---------------------------5----------|
E |----------------------------------2---------------------------3----------|
line1:they pave the way for every second of your day, it is no myth...


e |-------------------------------|
B |-------------------------------| 3x then...
G |------------7---------------4--|
D |------------7---------xx----4--|
A |------------5---------xx----2--|
E |----------------------xx-------|
line1: Its the bible  of the  gods


e |-------------------------------------------------------------------------|
B |-------------------------------------------------------------------------|
G |-4-----------------------------------------------------------------------|
D |-4------------------------4-----------------------------5-----------2----|
A |-2------------------------4-----------------------------5-----------2----|
E |--------------------------2-----------------------------3-----------0----|
 4:   another pawn, a pink flamingo on lawn...     on the capitol of shame


e |-----------------------------------x-------------|
B |-----------------------------------s-------------| 
G |-----------------------------7---9-t--rest-------|
D |-------------5---------------7---9-o-------------|
A |-------------5---------------5---7-p-------------|
E |-------------3-------------------0-x-------------|
  4: with your buried head and only you to blame


chorus: "you've been led on..."
    A   E    
e |-----------------------------------|
B |-2---------------------------------|
G |-2---1----6----7----6--------------| 4x
D |-2---2----6----7----6--------------|
A |-0---2----4----5----4--------------|
E |-----0-----------------------------|

then the whole verse thing again 
same thing happens at "another pawn, a pink flamingo on the lawn"
the last part of it doesn't completely stop though

then chorus for 4 times
last one ends like:
e |----------------------------------------|
B |----------------------------------------|
G |-----r---------77---66---44---22--------|
D |--4--i---------77---66---44---22--------|
A |--4--n---------55---44---22---00--------|
E |--2--g----------------------------------|

this is my first and only tab
please rate it.

            
            
Suggest correction
Creating personal tab
Creating personal tab
You can edit any tab online and save it as your Personal.

You can edit, replace or remove any tab part or add personal notes – all changes will be seen only by you.

Personal tabs can be accessed anytime from any device, even offline.
Learn more »
Give kudos to tab author, rate the tab!
1 2 3 4 5
comments
print report bad tab
guest
You may want to rate the tab now too:
select rating
Wanna post a correction for this tab? Suggest correction