Oops, an error
Loading. Please wait.

Retarded In Love tab

version 1
version 1

Whole song

7,685 views 6 this week
2 commentsread comments
1 2 3 4 5
1 last vote to show rating
add to favorites
×
Save as Personal and add changes to this tab that will be seen only by you. Learn more ›
×
You can save this tab as Personal to edit and correct it or add notes. All changes will be seen only by you. Learn more »
launch autoscroll
font size
0
reset
how to read this tab
guitar tuner
edit
Autoscroll
slow
fast
+/-
esc
set tempo
stop
Author
Difficulty
Retarded in Love - Say Anything

This song is the song that made me like Say Anything.  Took forever to tab though :(.   
credits for lead in chorus go to NoSmokingBandit.
well, here it is in all its glory.

UPDATE - 9/27/08  Changed around alot of stuff (mainly pre-chorus/bridge)
                  should be a million times better, again thanks to
                  NoSmokingBandit for the lead in the chorus, you rock,

s = slide
h = hammer on
p = pull off
r = tied note
rb = return bend
v = vibrato

Verse:

Guitar 1:


     G     G      EmEmEmEm
|----3-----3----|--------------------|
|----3-----3----|--------------------|
|----0-----0----|-0-0-0-0------------|
|----0-----0----|-2-2-2-2--4s5s4s2p0-|
|----2-----2----|-2-2-2-2------------|
|--3-3---3-3----|-0-0-0-0------------|

    Em7   Em7     Em
|---3-----3-----|----------------------|
|---3-----3-----|-----------0----------|
|---0-----0-----|-0-----0-----0---0----|
|---2-----2-----|-----2---2-----2------|
|-2-2---2-2-----|---2------------------|
|-0-0---0-0-----|---0------------------|

Guitar 2 comes in with these little addins:
Does this every other round of guitar 1.


|------|------|
|------|-3----|
|-2-0--|---0--|
|------|------|
|------|------|
|------|------|


Pre-Chorus:

                            B B B B B B
|-------------------|-------x-x-x-x-x-x-|
|-------------------|-------4-4-4-4-4-4-|
|-4-4-4-4-4-4-4-4-4-|-4-4-4-4-4-4-4-4-4-|
|-4-4-4-4-4-4-4-4-4-|-4-4-4-4-4-4-4-4-4-|
|-2-2-2-2-2-2-2-2-2-|-2-2-2-2-2-2-2-2-2-|
|-------------------|-------------------|
  PM~~~~~~~~~~~~~~~~~~~~~~~


Chorus:

My god this is freakin hard!
Theres pry some weird instrument in there
that you probably can't make sound exactly
the same on guitar, but I did my best.

Guitar 1:

This ones hard to hear, and I didn't wanna
have to lay down four guitars.  So I tried
to sum it up in this one.


|-----3---3-----|-----3-------------|
|-------3---3---|-------3-----------|  x4
|-0-0---------0-|-0-0---------------|
|-0-0-----------|-2-2-----4b5br4s2--|   This guitar ends on G.
|-2-2-----------|-2-2---------------|
|-3-3-----------|-0-0---------------|

Guitar 2:

ALL CREDIT FOR THIS GUITAR GOES TO NoSmokingBandit.  Thanks a ton!

|-14-15----17-15-------------------------19-15-17-|
|-------15-------15-------15-------15-15----------|
|-------------------16-17----16-17----------------|
|-------------------------------------------------|
|-------------------------------------------------|
|-------------------------------------------------|

|-14-15----17-15-------------15h17p15----15h17p15----19-|
|-------15-------15-------15----------15----------15----|
|-------------------16-17-------------------------------|
|-------------------------------------------------------|
|-------------------------------------------------------|
|-------------------------------------------------------|


|-14-15----17-15--------------------------------|
|-------15-------15----13-13h15-----13-13h15-13-|
|-------------------16-----------16-------------|
|-----------------------------------------------|
|-----------------------------------------------|
|-----------------------------------------------|

|-------------------------------15--|
|----13-15-----13-13h14----13---15--|
|-16----------------------------12--|
|-----------12----------12------12--|
|-----------------------------------|
|-----------------------------------|

Verse 2:

Guitar 1 repeats the same riff.

Keyboard?:

Comes in and does this simple octive over and over:

|--3--|
|--x--|
|--0--|
|-----|
|-----|
|-----|

Guitar 2:

Gets a bit more tricky,but still keeps the same basic idea.
It sorta turns into a solo almost, but without the solo part.
(this hasn't been updated, i'll get it in soon)


|-----|------|-19-17b19br17-15-14-12-10-|-19b-19p17p15-----------------|
|-----|------|--------------------------|--------------19-17p15b-15p13-|
|-----|------|--------------------------|------------------------------|
|-5-2-|-12bv-|--------------------------|------------------------------|
|-----|------|--------------------------|------------------------------|
|-----|------|--------------------------|------------------------------|

|-19-17b19br17-15-14-12-10-|
|--------------------------|
|--------------------------|
|--------------------------|
|--------------------------|
|--------------------------|


Repeat Pre-Chorus

Repeat the impossible to tab Chorus

Bridge:

Bass Riff:

|------------|-------------------------|
|------------|-------------------------|
|------------|-------------------------|
|------------|-------------------------|
|-7-55-33----|-33-55-5-2h3-2h3-2-----2-|
|---------33-|-------------------0-3---|

|------------|------------------|
|------------|------------------|
|------------|------------------|
|------------|------------------|
|-7-55-33----|-33-55-------2p0--|
|---------33-|-------33--3------|


Right after bass:
(this isn't updated)

|-3p2---2-------2---2h3------|-3-----3---3---3---3-----|
|-----3---3---3---3-----3----|---3-----3---3---3---3---|
|-----------0-------------0--|-----0-----------------0-|  Until end
|----------------------------|-------------------------|
|----------------------------|-------------------------|
|----------------------------|-------------------------|

Guitar 2:

|----------------------------------|-----------------------------|
|----------------------------------|-----------------------------|
|----------------------------------|-----------------------------|
|-4-4---2-2---4-4--4h5-4h5-4h5-4s2-|-5s7-9-9-7-7-5-5-4h5-4h5-4h5-|
|----------------------------------|-----------------------------|
|----------------------------------|-----------------------------|


The Chords for the End Are:


 Em7   Cadd9 Am7   Am7sus2
|-----|-----|-----|-----|
|-----|-----|-----|-----|
|-7---|-7---|-5---|-4---|
|-5---|-5---|-5---|-5---|
|-7---|-3---|-x---|-x---|
|-----|-----|-5---|-5---|

Thats about it!   All the strum patters and amt of notes your
supposed to hit is probably off, but other than that it sounded
pretty good to me!   enjoy!

            
            
Suggest correction
Creating personal tab
Creating personal tab
You can edit any tab online and save it as your Personal.

You can edit, replace or remove any tab part or add personal notes – all changes will be seen only by you.

Personal tabs can be accessed anytime from any device, even offline.
Learn more »
Give kudos to tab author, rate the tab!
1 2 3 4 5
comments
print report bad tab
2 comments total.
0 reply
idapappie 10 Nov 17, 2007 06:45 AM

that weird instrument you're hearing in there is the steel guitar. i really like the way they've broadened their sound
on the new album. nice tab keep em comin

0 reply
VAM 203 Dec 17, 2007 09:24 PM

I wanna say the chords for the ending bridge thing are Em, C, and Am two counts.

He plays them in his unique chord
style though. Good tab man.

guest
You may want to rate the tab now too:
select rating
Wanna post a correction for this tab? Suggest correction