Oops, an error
Loading. Please wait.

Spores Acoustic tab

16,819 views 15 this week
2 commentsread comments
1 2 3 4 5
x 7
add to favorites
×
Save as Personal and add changes to this tab that will be seen only by you. Learn more ›
×
You can save this tab as Personal to edit and correct it or add notes. All changes will be seen only by you. Learn more »
launch autoscroll
font size
0
reset
how to read this tab
guitar tuner
edit
Autoscroll
slow
fast
+/-
esc
set tempo
stop
Author
Difficulty
I got this of of Playsa.net, which is a great site for Say Anything tabs. kind of pissed 
off that they sorta stopped adding to it. if you go to the site they have a Youtube 
of the guy playing it. <3 Mari T. if you want, comment on it, I'll let Scott know.

Say Anything
"Spores" (Acoustic)
Tabbed By: Scott Rome

He plays it live with his guitar tuned to Eb as always. My tab is in E like the album version.

"I was watching.................Stood accused for the last two years-"

Main Riff          Part two              Variation
e|-------------------|-X-X--X-X--X-X--X-X-|-X-X-X-------|
B|-------------------|-X-X--X-X--X-X--X-X-|-X-X-X-------|
G|-11b---------------|-X-X--X-X--X-X--X-X-|-X-X-X-11-9--|
D|-11b----11-11-9-11-|-X-X--X-X--X-X--X-X-|-X-X-X-11-9--|
A|--9---9-11-11-9-11-|-X-X--X-X--X-X--X-X-|-X-X-X-------|
E|--9---9--9--9-9--9-|-X-X--X-X--X-X--X-X-|-X-X-X-------|Play 7x then go straight into

I got off...

e|-------------------9--9--9--9-|
B|-------------------9--9--9--9-|
G|-------------------9--9--9--9-|
D|-11-11--11-11-11--11-11-11-11-|
A|-11-11--11-11-11--11-11-11-11-|
E|--9--9---9--9--9---9--9--9--9-|

But I...
(Not correct strumming pattern)

e|--0---0--0--|
B|--0---0--0--|
G|--X---X--X--|
D|--9--11--9--|   x a few
A|--7--11--9--|
E|--5---9--7--|
Same as before:
Then you threw me..

Main Riff          Part two              Variation
e|------------------|-X-X--X-X--X-X--X-X-|-X-X-X-------|
B|------------------|-X-X--X-X--X-X--X-X-|-X-X-X-------|
G|-11b--------------|-X-X--X-X--X-X--X-X-|-X-X-X-11-9--|
D|-11b---11-11-9-11-|-X-X--X-X--X-X--X-X-|-X-X-X-11-9--|
A|--9--9-11-11-9-11-|-X-X--X-X--X-X--X-X-|-X-X-X-------|
E|--9--9--9--9-9--9-|-X-X--X-X--X-X--X-X-|-X-X-X-------|

I got off...

e|-------------------9--9--9--9-|
B|-------------------9--9--9--9-|
G|-------------------9--9--9--9-|
D|-11-11--11-11-11--11-11-11-11-|
A|-11-11--11-11-11--11-11-11-11-|
E|--9--9---9--9--9---9--9--9--9-|

But I...
e|--0---0--0--|
B|--0---0--0--|
G|--X---X--X--|
D|--9--11--9--|   x a few
A|--7--11--9--|
E|--5---9--7--|


Instrumental part --> going into "I miss you more tonight"
(Chorus just strummed differently)
e|--0---0--0--|
B|--0---0--0--|
G|--X---X--X--|
D|--9--11--9--|   x a few
A|--7--11--9--|
E|--5---9--7--|

You know I still know...

Main Riff          Part two              Variation
e|-------------------|-X-X--X-X--X-X--X-X-|-X-X-X-------|
B|-------------------|-X-X--X-X--X-X--X-X-|-X-X-X-------|
G|-11b---------------|-X-X--X-X--X-X--X-X-|-X-X-X-11-9--|
D|-11b----11-11-9-11-|-X-X--X-X--X-X--X-X-|-X-X-X-11-9--|
A|--9---9-11-11-9-11-|-X-X--X-X--X-X--X-X-|-X-X-X-------|
E|--9---9--9--9-9--9-|-X-X--X-X--X-X--X-X-|-X-X-X-------|

It's your loss.

e|--0--0---0--0---|
B|--0--0---0--0---|
G|--X--X---X--X---|
D|-11-11--11-11---|
A|-11-11--11-11---|
E|--9--9---9--9---|

End on

e|-12--|
B|-14--|
G|-13--|
D|-11--|
A|-----|
E|-----|

            
            
Suggest correction
Creating personal tab
Creating personal tab
You can edit any tab online and save it as your Personal.

You can edit, replace or remove any tab part or add personal notes – all changes will be seen only by you.

Personal tabs can be accessed anytime from any device, even offline.
Learn more »
comments
print report bad tab
2 comments total.
0 reply
Skilface 144 Apr 06, 2010 04:44 PM

E|---------------------------------------------------
b|--7-7g9-7------------------------------------------
G|----------9-8-8g9-8---------------------------9----
D|--------------------11-9-9g11-9-------------9------
A|--------------------------------12-11-11h12--------
E|---------------------------------------------------


I believe this is the riff that they play "After the last 'I miss you more tonight' " for those wondering.

0 reply
TheThirdDay 553 Nov 22, 2010 05:42 PM

This is what I tabbed for Guitar 2 during the bridge. The final riff as I tabbed it it very close to Skilface's.

Q E E Q E E Q E E Q E E Q E E Q E E Q E E E T S. E E
e|-------------|-------------|-------------|------------------|
b|-------------|-------------|-------------|-----7-7-7/9--7---|
g|-9---8-8---6-|-6---------9-|-9---8-8---6-|-6--------------9-|
d|-------------|-----9-9-----|-------------|------------------|
a|-------------|-------------|-------------|------------------|
e|-------------|-------------|-------------|------------------|

Q E E Q E E Q E E Q E E Q E E Q E E Q E E E E E S S
e|-------------|-------------|-------------|-----7-7-7-7-----|
b|-------------|-------------|-------------|-----------------|
g|-9---8-8---6-|-6---------9-|-9---8-8---6-|-6-----------9-9-|
d|-------------|-----9-9-----|-------------|-----------------|
a|-------------|-------------|-------------|-----------------|
e|-------------|-------------|-------------|-----------------|

Q E E Q E E Q E E Q E E Q E E Q E E Q E E E T S. E E
e|-------------|-------------|-------------|------------------|
b|-------------|-------------|-------------|-----7-7-7/9--7---|
g|-9---8-8---6-|-6---------9-|-9---8-8---6-|-6--------------9-|
d|-------------|-----9-9-----|-------------|------------------|
a|-------------|-------------|-------------|------------------|
e|-------------|-------------|-------------|------------------|

Q E E Q E E Q E E Q E E T S. E E E E E E E E E E E E E E E
e|-------------|-------------|--------------------|-----------------|
b|-------------|-----------7-|-7/9--7-------------|-----------------|
g|-9---8-8---6-|-6-----------|--------9-8-9-8-6---|-6-------------6-|
d|-------------|-----9-9-----|------------------9-|---9-7-6-6-7-9---|
a|-------------|-------------|--------------------|-----------------|
e|-------------|-------------|--------------------|-----------------|

Q=Quarter; E=Eighth; S=Sixteenth; T=Thirty-Second; .=dotted (1.x note duration)

guest
You may want to rate the tab now too:
select rating
Wanna post a correction for this tab? Suggest correction