Oops, an error
Loading. Please wait.

Surgically Removing The Tracking Device bass

1,913 views 3 this week
1 commentread comment
1 2 3 4 5
x 5
add to favorites
×
Save as Personal and add changes to this tab that will be seen only by you. Learn more ›
×
You can save this tab as Personal to edit and correct it or add notes. All changes will be seen only by you. Learn more »
launch autoscroll
font size
0
reset
guitar tuner
edit
Autoscroll
slow
fast
+/-
esc
set tempo
stop
Difficulty
intermediate
Say Anything
Surgically Removing the Tracking Device
In Defense of the Genre

h-hammer on
p-pull off
>-Strum
x-dead note (muted)
/-slide up
\-slide down

Verse 1
G---------------------------------------------------------------------------|
D--------------------------------/11-11-11-11-11-11-11-11—9-7---9-----------|
A--------0---0-2--------0---0---------------------------------9---9-7-------|
E---2--2---2-----2----2---2----7--------------------------------------9-7---|

G-------------------------------------------------------|
D-------------------------------------------------------|
A------0----0-2-------0---0---44444-2-4-5-77777-999-----|
E-2--2---2------2---2---2---7---------------------------|

Chorus
G---------------------------------------------|
D------------------------------------7-6------|
A—555555555555-7777-5xx5xx5xx5xx-9-7----------|
E---------------------------------------------|

G----------------------------------------------|
D--7-7-7-7-7-7-7-7------------------------7-6--|
A—--5-5-5-5-5-5-5-5-7777-5xx5xx5xx5xx-9-7------|
E----------------------------------------------|

Verse 2
G---------------------------------------------------------------------------|
D-------------------------------/11-11-11-11-11-11-11-11—9-7---9------------|
A--------0---0-2--------0---0--------------------------------9---9-7--------|
E---2--2---2-----2----2---2---7--------------------------------------9-7----|

G-------------------------------------------------------------------|
D-------------------------------------------------------------2-----|
A--------0---0-2--------0---0-2---2/4--2--0-------------0-2/4-------|
E---2--2---2-----2----2---2------------------2—0----0-2-------------|


G---------------------------------------------------------------------------|
D-------------------------------/11-11-11-11-11-11-11-11—9-7---9------------|
A--------0---0-2--------0---0--------------------------------9---9-7--------|
E---2--2---2-----2----2---2---7----------------------==--------------9-7----|

G---------------------------------------------------------|
D---------------------------------------------------------|
A------0----0-2------0---0-2-44444-2-4-5-77777-999--------|
E-2--2---2-----2---2---2----------------------------------|

Chorus 2
G-------------------------------------------|
D-------------------------------------6-7---|
A—555555555555-7777---5xx5xx5xx5xx5-7-------|
E-------------------------------------------|

G-------------------------------------------|
D-------------------------------------------|
A—555555555555-7777--5xx5xx5xx5xx7777-------|
E-------------------------------------------|

Bridge
G---------------2----2-2-2-2-4-------|
D------------------------------4-----|
A--3--3333---------------------------|
E------------2-----------------------|

G-----------------------------------7-6------------------|
D--2----2--4----4--6----6--7----7-9-----7-9---/16--------|
A----4-------4--------4-------4--------------------------|
E--------------------------------------------------------|

G---------------2---2-2-2-2-4---------|
D-----------------------------4-------|
A--3--3333----------------------------|
E------------2------------------------|

G----------------------------------7-6-----------------------|
D--2----2--4----4--6---6--7----7-9-----7-9----/16---16--16---|
A----4-------4-------4-------4-------------------------------|
E------------------------------------------------------------|


G---------------------------------------------------------------------|
D---------------------------------------------------------------------|
A---------------------------------------------------------------------|
E--2--------------2--------------2-----------------2------------------|

Outro
G-------------|--------------------------------------|
D------7-6----|-------------------------7-6----------|
A----------7--|-555555-777777-444444-555----7--------|
E-------------|--------------------------------------|

G-------------------------------9-------|
D---------------------------6-7---------|
A--555555-777777-444444-555-------------|
E---------------------------------------|

G-------------------------------------------|
D------7-6-------7-6-------7-6--------6-7---|
A--555-----7-777-----7-444-----7-555-7------|
E-------------------------------------------|

G------------------4------------------------|
D------7-6----6-7----7-6--------------------|
A--555------7------------7-444444-555555----|
E-------------------------------------------|

G----------|
D—7>-------|
A—5>-------|
E----------|

Note on the following transcription: Slide up the E string while constantly picking. End 
slide and the  picking at the 9th fret.  Slide back down the E string from the 9th fret 
picking.  End the slide back at the 1st fret.
G------------|
D------------|
A------------|
E-1>/-9\-----|

            
            
Suggest correction
Creating personal tab
Creating personal tab
You can edit any tab online and save it as your Personal.

You can edit, replace or remove any tab part or add personal notes – all changes will be seen only by you.

Personal tabs can be accessed anytime from any device, even offline.
Learn more »
comments
print report bad tab
1 comment total.
0 reply
rastabass 308 Aug 02, 2008 06:25 PM

great tab

sometimes went a bit overboard with the fills and stuff but all the notes work great

5*

guest
Wanna post a correction for this tab? Suggest correction