Oops, an error
Loading. Please wait.

Total Revenge chords

version 3
version 3

Whole song

Interactive

901 views 3 this week
1 commentread comment
1 2 3 4 5
2 more votes to show rating
add to favorites
×
Save as Personal and add changes to this tab that will be seen only by you. Learn more ›
×
You can save this tab as Personal to edit and correct it or add notes. All changes will be seen only by you. Learn more »
launch autoscroll
font size
0
reset
transpose
0
reset
simplify chords
display chords
guitar tuner
edit
Autoscroll
slow
fast
+/-
esc
set tempo
stop
Author
Difficulty
Strumming
There is no strumming pattern for this song yet. and get +5 IQ
Ignore the blue imbedded chords put up by ultimate-guitar.
I used a chord-naming program and they don't match up. Use only the chords I put.



Intro
e|----------------------------------------------------------------------|
B|-------4---4---4-----------2---2---2----------------------------------|
G|----------------------------------------------------------------------|
D|-4/6--------------2/4---------------------------------7-6-------------|x2
A|-----2---2---2-----------0---0---0---------2-4-2-4-2--x-x-------------|
E|-------------------------------------2h4---0-0-0-0-0--0-0-------------|


Badd4:    {x2244x}
B5:       {x244xx}
BM7:      {x243xx}
Bsus4:    {x224xx}
C#5:      {x466xx}
E5:       {xx245x}


       Badd4    B5          BM7   Bsus4       
When I like     you    it’s total revenge.


  Badd4  B5          BM7             Bsus4
I want   to,      but I      can’t pretend.


     Badd4   B5            BM7        Bsus4
That I       don’t    need to be by your side again.


Badd4(X4) Bsus4(X4)  B5(X1)  C#5(X1) E5(X1)



C#m7:      {04x45x}
Bsus4:     {0224xx}
F#:        {2x43xx}
F#maj7:    {x234xx}


        C#m7  Bsus4        F#      Bsus4
Wrap me up            in a plastic case

       C#m7  Bsus4            F#   Bsus4
Pat me down         with your warm embrace

        C#m7  Bsus4                F#        Bsus4
I wanna know          where you’ve laid your head   at


Fmaj7     Bsus4
Night for all these years



e|----------------------------------------------------------------------|
B|-------4---4---4-----------2---2---2----------------------------------|
G|----------------------------------------------------------------------|
D|-4/6--------------2/4---------------------------------7-6-------------|x2
A|-----2---2---2-----------0---0---0---------2-4-2-4-2--x-x-------------|
E|-------------------------------------2h4---0-0-0-0-0--0-0-------------|


Badd4:    {x2244x}
B5:       {x244xx}
BM7:      {x243xx}
Bsus4:    {x224xx}
C#5:      {x466xx}
E5:       {xx245x}



         Badd4  B5          BM7      Bsus4
You’re a problem       that I can’t abide

        Badd4   B5       BM7    Bsus4
I could sleep   well, If only I tried

      Badd4    B5       BM7        Bsus4     Badd4(fast strumming)
But I stay     up   and dream of a bride to be

Oh me!         Oh my!
   B5(X1) C#5(X1) E5(X1)


C#m7:      {04x45x}
Bsus4:     {0224xx}
F#:        {2x43xx}
F#maj7:    {x234xx}


        C#m7  Bsus4           F#      Bsus4
Give it up!           I can’t wait no more.

     C#m7  Bsus4           F#      Bsus4
I am stuck         on your bedroom floor

         C#m7   Bsus4          F#      Bsus4
With the thought        that I may not be


   F#maj7   Bsus4
As great as those who came before



B5:       {x244xx}
F#maj:    {2443xx}
Bsus4:    {0224xx}

          B5     F#maj    Bsus4
There’s a man assigned to me

       B5        F#maj     Bsus4
And he checks on my     stability

     B5        F#maj   Bsus4
We discuss you every   week

      B5        F#maj    Bsus4
And I rinse and rinse  repeat



Badd4:    {x2244x}
B5:       {x244xx}
F#maj:    {2443xx}


     Badd4         B5        F#maj7
But maybe,   I can show you, baby,

Badd4         B5        F#maj7
maybe   I can relax for good, whoa,


Badd4          B5          F#maj7
Baby     I can show you    maybe

Badd4
baby


B5:       {x244xx}
F#maj:    {2443xx}
Bsus4:    {0224xx}

          B5     F#maj    Bsus4
There’s a man assigned to me

       B5        F#maj     Bsus4
And he checks on my     stability

     B5        F#maj   Bsus4
We discuss you every   week

      B5        F#maj    Bsus4
And I rinse and rinse  repeat



       B5      F#maj7     Bsus4
And he charges by     the tear

        B5      F#maj7      Bsus4
‘Till I weep no more simply out of fear

       B5       F#maj7      Bsus4
That I can’t afford    your love.

        B5        F#maj7    Bsus4
And the moon just burns     above




Solo
/ is slide
b is bend
~ is vibrato 
e|--------------------------------------------------------------------------|
B|--------------------------------------------------------------------------|
G|--------------8-6~----------------------8-6~------------------------------|
D|----/6-8-9--------9-9~------/6-8-9----------8---8b10----6~----------------|
A|--------------------------------------------------------------------------|
E|--------------------------------------------------------------------------|

e|--------------------------------------------------------------------------|
B|--------------------------------------------------------------------------|
G|-------------8-6~---------------------------------------------------------|
D|----/6-8-9--------9-9~----/6---8--9--8--6--/4--6--4--2---1----------------|
A|--------------------------------------------------------------------------|
E|--------------------------------------------------------------------------|

            
            
Suggest correction
Creating personal tab
Creating personal tab
You can edit any tab online and save it as your Personal.

You can edit, replace or remove any tab part or add personal notes – all changes will be seen only by you.

Personal tabs can be accessed anytime from any device, even offline.
Learn more »
Give kudos to tab author, rate the tab!
1 2 3 4 5
comments
print report bad tab
1 comment total.
0 reply
Lowgunz 29 Sep 28, 2014 09:53 AM

Ignore the blue imbedded chords put up by ultimate-guitar. I used a chord-naming program and they don't match up. Use only the chords I put.

guest
You may want to rate the tab now too:
select rating
Wanna post a correction for this tab? Suggest correction