Oops, an error
Loading. Please wait.

Woe Acoustic tab

version 1
version 1

Whole song

Interactive

21,795 views 3 this week
no commentswrite comment
1 2 3 4 5
1 last vote to show rating
add to favorites
×
Save as Personal and add changes to this tab that will be seen only by you. Learn more ›
×
You can save this tab as Personal to edit and correct it or add notes. All changes will be seen only by you. Learn more »
launch autoscroll
font size
0
reset
how to read this tab
guitar tuner
edit
Autoscroll
slow
fast
+/-
esc
set tempo
stop
Author
Difficulty
-------------------------------------------------------------------------------
                             WOE ACOUSTIC - Say Anything
-------------------------------------------------------------------------------
Tabbed by: Paul Lupario
Email: paullupario@gmail.com

I pretty much just listened to Max playing "Woe" on ...Acoustic Through Your Worthless
Ears! and figured it out by listening.  It's not exactly what he plays but this is
closer to the album version of the song, done acoustic.  The acoustic version of "Woe"
and lots of other rare Say Anything songs can be found at
http://www.soundclick.com/bands/pagemusic.cfm?bandID=88358


Tuning: Standard (EADGBe)

Verse (x2)

e|-3---3---3--3-3-3---3---3---3-3-3--3---3---2---0-0-2-2-3-2-0-0-2-2-|
B|-0---0---0--0-0-0---0---0---0-0-0--0---0---0---0-0-0-0-0-0-0-0-0-0-|
G|-0---0---0--0-0-0---0---0---0-0-0--0---0---0---0-0-0-0-0-0-0-0-0-0-|
D|-0---0---0--0-0-0---0---0---0-0-0--0---2---2---2-2-2-2-2-2-2-2-2-2-|
A|-x---x---x--x-x-x---x---x---x-x-x--x---2---2---2-2-2-2-2-2-2-2-2-2-|
E|-3---3---3--3-3-3---3---3---3-3-3--3---0---0---0-0-0-0-0-0-0-0-0-0-|
All the words in my mouth,
that the scene deemed unworthy of letting out

e|-0-0-0-0-0-0-0-|0-0-0-0-0-2-2-2-3-3-3-2--|
B|-1-1-0-0-0-0-1-|1-0-0-0-0-3-3-3-3-3-3-3--|
G|-2-2-2-2-2-2-2-|2-2-2-2-2-2-2-2-2-2-2-2--|
D|-2-2-2-2-2-2-2-|2-2-2-2-2-0-0-0-0-0-0-0--|
A|-0-0-0-0-0-0-0-|0-0-0-0-0-0-0-0-0-0-0-0--|
E|-0-0-0-0-0-0-0-|0-0-0-0-0-0-0-0-0-0-0-0--|
banded together, to form a makeshift militia
and burrow bloodily through my tongue and my teeth


Chorus (x2)

e|--------------------------------------------|
B|-1---0---0h1---0--------------------0-------|
G|---------------------------0---2------------|
D|---------------------4---0---0----0---0-----|
A|---0---0-----0---0--------------------------|
E|--------------------------------------------|
He lives with woe...


Verse (x2)


Chorus (x2)


Bridge? (x1)

e|-0-0-0-0-0-0-0-0---2-2-2-2-2-2-2-2--|-0-0-0-0-0-0-0-0-2--2--2----|
B|-1-1-0-0-1-1-0-0---3-3-3-3-3-3-3-3--|-1-1-0-0-1-1-0-0-3--3--3----|
G|-2-2-2-2-2-2-2-2---2-2-2-2-2-2-2-2--|-2-2-2-2-2-2-2-2-2--2--2----|
D|-2-2-2-2-2-2-2-2---0-0-0-0-0-0-0-0--|-2-2-2-2-2-2-2-2-0--0--0----|
A|-0-0-0-0-0-0-0-0---0-0-0-0-0-0-0-0--|-0-0-0-0-0-0-0-0-0--0--0----|
E|-0-0-0-0-0-0-0-0---0-0-0-0-0-0-0-0--|-0-0-0-0-0-0-0-0-0--0--0----|
"I can't get laid in this town, without these pointy fucking shoes"

Outro (x4)

e|-0-0---0-0-3-3---3-3-0-0---0-0-2-2----------|
B|-1-1---1-1-3-3---3-3-0-0---0-0-3-3----------|
G|-0-0---0-0-0-0---0-0-0-0---0-0-2-2----------|
D|-2-2---2-2-0-0---0-0-2-2---2-2-0-0----------|
A|-3-3---3-3-2-2---2-2-2-2---2-2-0-0----------|
E|-0-0---0-0-3-3---3-3-0-0---0-0-0-0----------|
Out of my body up through the palm trees

Outro (x4)
"La la la..."

Bridge thing again (x4)
(on the last one play each chord once and let them ring instead of strumming)

e|-0-0-0-0-0-0-0-0---3-3-3-2-2-2|2-h3---------|
B|-1-1-0-0-1-1-0-0---0-0-0-3-3-3|3--3---------|
G|-2-2-2-2-2-2-2-2---0-0-0-2-2-2|2--2---------|
D|-2-2-2-2-2-2-2-2---0-0-0-0-0-0|0--0---------|
A|-0-0-0-0-0-0-0-0---x-x-x-0-0-0|0--0---------|
E|-0-0-0-0-0-0-0-0---3-3-3-0-0-0|0--0---------|
So now I'm forging ahead,
past all the plutocrats who sold me out

Outro (x2)
"La la la..."


| /  slide up
| \  slide down
| h  hammer-on
| p  pull-off
| ~  vibrato
| +  harmonic
| x  Mute note
===============================================================================

            
            
Suggest correction
Creating personal tab
Creating personal tab
You can edit any tab online and save it as your Personal.

You can edit, replace or remove any tab part or add personal notes – all changes will be seen only by you.

Personal tabs can be accessed anytime from any device, even offline.
Learn more »
Give kudos to tab author, rate the tab!
1 2 3 4 5
comments
print report bad tab
guest
You may want to rate the tab now too:
select rating
Wanna post a correction for this tab? Suggest correction