Oops, an error
Loading. Please wait.

Chiisana Honoo tab

by Scandal
1,720 views 18 this week
no commentswrite comment
1 2 3 4 5
3 more votes to show rating
add to favorites
×
Save as Personal and add changes to this tab that will be seen only by you. Learn more ›
×
You can save this tab as Personal to edit and correct it or add notes. All changes will be seen only by you. Learn more »
launch autoscroll
font size
0
reset
how to read this tab
guitar tuner
edit
Autoscroll
slow
fast
+/-
esc
set tempo
stop
Author
Intro (Haruna only)
Chords:

   G    Am7   Bm    Em    C    C9     Cm   D5   E5
e|-3-----0-----2-----3----0----0-------3----x----x--|
B|-0-----1-----3-----0----1----3-------4----x----x--|
G|-0-----0-----4-----0----0----0-------5----7----9--|
D|-0-----2-----4-----2----2----2-------5----x----x--|
A|-2-----0-----2-----0----3----3-------3----5----7--|
E|-3-----x-----x-----x----x----x-------x----x----x--|

Verse 1

G      Am7      Bm    Em
Moete, yurete, toketeku
      C9
Kyandoru mitai da
G    D     Em
Anata to watashi

G      Am7   Bm   Em  (Mami plays part below)
Itsuka kiete shimau
C        D       
Chiisana honoo

e|-10-------10-------------------------------------10-|
B|----10-------10-----------10---------------10----10-|
G|--------12-------12----------12---------12-------12-|
D|-----------------12--------------12-14-----------x--|
A|----------------------12-------------------------x--|
E|-------------------------------------------------x--|


Intro Solo (Mami)
e|--15---------------------------15-------------8-10-11-15--15-----|
B|-----15---------------------------15-----------------------------|
G|--------14/16----4-5-5-(5)-4----------14/16----------------------|
D|-----------------------------------------------------------------|
A|-----------------------------------------------------------------|
E|-----------------------------------------------------------------|The (x) means bend.
(At this part, Haru is playing G and Cm)


Haru plays C9 and Em like picking with fingers :
    C9         Em
e|----------------------3-|
B|----------3---------3---|
G|--------0--------0------|
D|------2-------2---------|
A|---3--------------------|
E|------------------------|   
                   C9           Em
Fumidashite mae wo muku soredemo
            C9            Em
Kowai mono nante nakunaranai sa
            C9            Em    (Mami plays part below)
Kitaihazure no kinou to kyou wo
           C9                D5 E5
Ashita mo waratte ukeiretai nara


e|-15---------15--------15---------x----x---------------17-|
B|----15---------15-------15-------x----x--------15--17----|
G|-------17---------16-------17----7----9-----14-----------|
D|---------------------------------x----x------------------|
A|---------------------------------5----7------------------|
E|---------------------------------x----x------------------|

Chorus:
   G    Bm    Em    C   Cm   D   
e|-3-----2-----7----3----3---5----|
B|-3-----3-----8----5----4---7----|
G|-4-----4-----9----5----5---7----|
D|-5-----4-----9----5----5---7----|
A|-5-----2-----7----3----3---5----|
E|-3-----x-----x----x----x---x----|

          G         D         Em            C Cm
Hoshi ni naru hi made iki wo sutte ikiru no
      G        Bm 
Umaku susumenai anata wo
       Em             C   Cm
Daremo semetari shinai kara aah

(Mami)

e|-(19)(19)(19)(19)(19)(19)(19)-----(19)----15---17-15---------------------|
B|-----------------------------(18)-----------15-------15----13------------|
G|-------------------------------------17-----------------------14---12----|
D|----------------------------------------------------------------------12-|
A|-------------------------------------------------------------------------|
E|-------------------------------------------------------------------------|The (x) means bend.


Verse 2

  C9     Em     C9   Em 
Moete, yurete, toketeku
    C9    Em      C9      Em
Anata to watashi no inochi

Mami plays

e|---------------------------------------------------------------------------------------------|
B|-12----------10--------12----------15-13-12h13-----------15----------13-----------13---------|
G|--------12--------12---------14-----------------12----12--------------------12-14----16------|
D|---------------10---------12-----------------------12---------12--14-----16------------------|
A|-----14--------------------------------------------------------------------------------------|
E|---------------------------------------------------------------------------------------------|

  
      G    Am7         Bm    C
Tomatta mezamashidokei nara
    Em         C            C5/B5/A5/G5
Konbini no denchi de ikikaeru kedo

Mami plays

e|----------------------------------------------|
B|---------------------------12-8--10-----------|
G|-11/12-------------7-9-/12--------------------|
D|---------12/10--9-----------------------------|
A|-------------------------------------3-2------|
E|-----------------------------------------5-3--|


              C9 C9  C9 C9    Em Em Em Em
Onaji sora no shita hitori ja nai
         C9 C9 C9 C9      Em Em Em Em
Tadashisa dake ga kotae ja nakatta
         C9 C9 C9 C9        Em Em Em Em
Kurikaeshi no you na mainichi da tte
         C9 C9               D D
Itsuka wa owatte shimau mono dakara

Mami plays
e|-x----------15------x------15-------x---------15------15-------------10---x------------15-|
B|-15------------15---15--------15---15-----------15----15----------10-----12--(12)------15-|
G|-16------16---------16-------------16------16---------16-------12--------12---------12----|
D|-17---17------------17---17--------17---17------------x-----12-----------12-------12------|
A|-17-----------------x--------------17-----------------x-------------------x---------------|
E|-x------------------x---------------x-----------------x-------------------x---------------|

e|-x----x---------------17-|
B|-x----x--------15--17----|
G|-7----9-----14-----------|
D|-x----x------------------|
A|-5----7------------------|
E|-x----x------------------|

Chorus

          G         D         Em            C Cm
Hoshi ni naru hi made iki wo sutte ikiru no
      G        Bm 
Shinjiru koto ni tsukaretemo
       Em             C   Cm
Jibun wo kirai ni naranaide

          G         D         Em            C Cm
Hoshi ni naru hi made iki wo sutte ikiru no
      G        Bm 
Umaku susumenai anata wo
       Em             C   Cm
Daremo semetari shinai kara

Instrumental


G  Bm Em C Cm (2x)


Outro Solo

(Mami)

e|--15-------------------15------19-------15-------|
B|-----15--------------------(19)------------16----|
G|--------14/16---5-(5)-------------------------17-|
D|-------------------------------------------------|
A|-------------------------------------------------|
E|-------------------------15---------8------------|


e|-(19)19(19)19-15----(15)(17)(19)(20)-15----------------------15-15-15----x-----|
B|----------------15---------------------15---14/16------------------------x-----|
G|------------------------------------------------------------------------12-----|
D|----------------------------------------------------13-13-13-------------x-----|
A|-------------------------------------------------------------------------x-----|
E|-------------------------------------------------------------------------x-----|

While Mami plays this, Haru plays G and Cm 

End with G









            
            
Suggest correction
Creating personal tab
Creating personal tab
You can edit any tab online and save it as your Personal.

You can edit, replace or remove any tab part or add personal notes – all changes will be seen only by you.

Personal tabs can be accessed anytime from any device, even offline.
Learn more »
Give kudos to tab author, rate the tab!
1 2 3 4 5
comments
print report bad tab
guest
You may want to rate the tab now too:
select rating
Wanna post a correction for this tab? Suggest correction