Oops, an error
Loading. Please wait.

Everybody Say Yeah tab

version 1
version 1

Whole song

Interactive

by Scandal
653 views 9 this week
no commentswrite comment
1 2 3 4 5
2 more votes to show rating
add to favorites
×
Save as Personal and add changes to this tab that will be seen only by you. Learn more ›
×
You can save this tab as Personal to edit and correct it or add notes. All changes will be seen only by you. Learn more »
launch autoscroll
font size
0
reset
how to read this tab
guitar tuner
edit
Autoscroll
slow
fast
+/-
esc
set tempo
stop
Author
CHORDS:

  F5    G#5    A#5  C#5   D#5
e|--x-----x------x----x-----x|
B|--x-----x------x----x-----x|
G|--x-----x------x----x-----x|
D|--x-----x------x----6-----8|
A|--3-----6------8----4-----6|
E|--1-----4------6----x-----x|

Octave:

  F5    G#5    A#5  C#5   D#5
e|--x-----x------x----x-----x|
B|--x-----x------x----x-----x|
G|--x-----x------x----6-----8|
D|--3-----6------8----x-----x|
A|--x-----x------x----4-----6|
E|--1-----4------6----x-----x|

The (x) means bending


[Intro]

e|------------------------------------------------------|
B|------------------------------------------------------|
G|------------------------------------------------------|
D|------------------------------------------------------|
A|--------------3/1-3/1-3/1----------------3/1-3/1-3/1--|
E|--1-1-3h4-1-1---------------1-1-3h4-1-1---------------|

e|--16-15-------------------------16-15-----------------------16-----|
B|--------16-18-------------16-18-------16-18-----------16-18----18--|
G|--------------------15-17-----------------------15-17--------------|
D|--------------15-18------------------------15-18-------------------|
A|-------------------------------------------------------------------|
E|-------------------------------------------------------------------|

e|--16-15--------------------------------------------------------------------|
B|--------16-18-------------16--18-------------------------------------------|
G|--------------------15-17-----------(15)-(15)-(15)-13-15-(14)-(14)-(14)----|
D|--------------15-18-----------------------------------------------------15-|
A|---------------------------------------------------------------------------|
E|---------------------------------------------------------------------------|


[Verse 1]

F5       G#5
Aa, kizukanakatta
A#5                          F5
Migi wo mite mo hidari wo mite mo
F5       G#5
Aa, mawari no taido
A#5
Keigona no ara kimi mo


(OCTAVE)
G#5    A#5
Itsunomani kamou
Nattan desu yo otona desu yomou
e|--------------------------------|
B|-9----9-9----------------9-9----|
G|---10-----10--8-10-10-8------10-|
D|--------------------------------|
A|--------------------------------|
E|--------------------------------|

(OCTAVE)
G#5       A#5
Tameiki KISU no aji
C5( Repeats)
Tanoshimanakya son
1, 2, 3, 4


[Chorus]

   F5    G#5    A#5  C#5   D#5
e|--x-----x------x----x-----x|
B|--x-----x------x----x-----x|
G|--10----13-----15---6-----8|
D|--x-----x------x----x-----x|
A|--8-----11-----13---4-----6|
E|--x-----x------x----x-----x|

F5                  G#5
EVERYBODY SAY YEAH, EVERYBODY SAY YEAH
A#5                   C#5 D#5
Gozen kuji no oniisan mo
F5                  G#5
EVERYBODY SAY YEAH, EVERYBODY SAY YEAH
A#5              C#5 D#5
Wakakoto no SORRY mo
YEAH, YEAH, YEAH

e|------------------------|
B|------------------------|
G|------------------------|
D|--3-3-6-6-8-6-8-8--3----|
A|--x-x-x-x-x-x-x-x--x----|
E|--1-1/4-4-6-4-6-6--1----|(2x)


[Verse 2]

F5       G#5
Aa shitte irun da
A#5                  F5
Sukoshi kurai uso tsuki demo
F5       G#5
Aa chikyuu kibo nara
A#5
Taishita koto nai tte koto

(OCTAVE)
G#5      A#5         F5
Zurusa mo tama ni wa hitsuyou desu yo
G#5       A#5      C5
Dakedo magokoro wa tsukatte NANBO da
1, 2, 3,


[Chorus]

   F5    G#5    A#5  C#5   D#5
e|--x-----x------x----x-----x|
B|--x-----x------x----x-----x|
G|--10----13-----15---6-----8|
D|--x-----x------x----x-----x|
A|--8-----11-----13---4-----6|
E|--x-----x------x----x-----x|

F5                  G#5
EVERYBODY SAY YEAH, EVERYBODY SAY YEAH
A#5                   C#5 D#5
Otomari no oneesan mo
F5                  G#5
EVERYBODY SAY YEAH, EVERYBODY SAY YEAH
A#5              C#5 D#5
Otonari no pagu datte
Wan wan waaaaaaaaaaaaaaan!!


[Solo]

e|-------------------------------------------------------------------|
B|-----------------------------------------16------------------------|
G|-----------------------------------13-15---(15)-13-15-15-(15)-(15)-|
D|-10--10-10-13-13--13---------13h15---------------------------------|
A|--x--x--x--x--x---x----13h15---------------------------------------|
E|--8--8--8--11-11--11-----------------------------------------------|

e|-----16-15----16-15----18-16----18-16---18-16---20-18---20-18-------------/20|
B|--13-------13-------16-------16------16------16-------16---------------------|
G|--------------------------------------------------------------10-12-13-15----|
D|-----------------------------------------------------------------------------|
A|-----------------------------------------------------------------------------|
E|-----------------------------------------------------------------------------|

Hitorikiri nante jinsei mottai nai(BELOW)
Egao mo namida mo kimi ga iru kara kagayaiterun da
Yeah yeah yeah yeah

e|-----------------------------------------------------x-----|
B|----------------6-9-8--------------------------------x-----|
G|--5-8-5-8-(7)-8-------8---10/8/5/8/5/8-88-(7)-/10----x-----|
D|-----------------------------------------------------5-----|
A|-----------------------------------------------------3-----|
E|-----------------------------------------------------x-----|(Keep strumming C5)

NO SOUND
EVERYBODY SAY YEAH, EVERYBODY SAY YEAH
Suzuki-san mo, Yamamoto-kun mo
F5                 G#5
EVERYBODY SAY YEAH, EVERYBODY SAY YEAH
A#5
Hazure-kun mo, Hatena-san mo(slide up and down)


[Chorus]

   F5    G#5    A#5  C#5   D#5
e|--x-----x------x----x-----x|
B|--x-----x------x----x-----x|
G|--10----13-----15---6-----8|
D|--x-----x------x----x-----x|
A|--8-----11-----13---4-----6|
E|--x-----x------x----x-----x|

F5                  G#5
EVERYBODY SAY YEAH, EVERYBODY SAY YEAH
A#5                   C#5 D#5
Ijimekko mo ijimerarekko mo
F5                  G#5
EVERYBODY SAY YEAH, EVERYBODY SAY YEAH
A#5              C#5 D#5
Kimi no shiranai kimi datte
Yeah yeah yeah!

e|------------------------|
B|------------------------|
G|------------------------|
D|--3-3-6-6-8-6-8-8--3----|
A|--x-x-x-x-x-x-x-x--x----|
E|--1-1/4-4-6-4-6-6--1----|(4x)

Tameiki wa CO2
Do you know?


[Outro]

e|--16-15-------------------------16-15-----------------------16-----|
B|--------16-18-------------16-18-------16-18-----------16-18----18--|
G|--------------------15-17-----------------------15-17--------------|
D|--------------15-18------------------------15-18-------------------|
A|-------------------------------------------------------------------|
E|-------------------------------------------------------------------|

e|--16-15--------------------------------------------------------------------|
B|--------16-18-------------16--18-------------------------------------------|
G|--------------------15-17-----------(15)-(15)-(15)-13-15-(14)-(14)-(14)----|
D|--------------15-18-----------------------------------------------------15-|
A|---------------------------------------------------------------------------|
E|---------------------------------------------------------------------------|

F5 Keep strumming
e|-x--|
B|-x--|
G|-x--|
D|-x--|
A|-3--|
E|-1--|

End with:
F5
e|-x--|
B|-x--|
G|-10-|
D|-x--|
A|-8--|
E|-x--|


***************************
|h   Hammer-on
|/   Slide up
|(n) Ghost note
|x   Dead note
***************************


            
            
Suggest correction
Creating personal tab
Creating personal tab
You can edit any tab online and save it as your Personal.

You can edit, replace or remove any tab part or add personal notes – all changes will be seen only by you.

Personal tabs can be accessed anytime from any device, even offline.
Learn more »
Give kudos to tab author, rate the tab!
1 2 3 4 5
comments
print report bad tab
guest
You may want to rate the tab now too:
select rating
Wanna post a correction for this tab? Suggest correction