Oops, an error
Loading. Please wait.

Exploding Reloading bass

version 1
version 1

Whole song

Interactive

1,214 views 1 this week
no commentswrite comment
1 2 3 4 5
1 last vote to show rating
add to favorites
×
Save as Personal and add changes to this tab that will be seen only by you. Learn more ›
×
You can save this tab as Personal to edit and correct it or add notes. All changes will be seen only by you. Learn more »
launch autoscroll
font size
0
reset
guitar tuner
edit
Autoscroll
slow
fast
+/-
esc
set tempo
stop
Author
Difficulty
Scars on Broadway - Exploding/Reloading

Standard bass tuning

Order:
Bridge
Verse 4x
Chorus
Bridge
Verse 4x
Chorus
Interlude 2x
Chorus
Verse 2x

Bridge:
|----------------|
|----------------|
|----------------|
|8-8-8-8-8-8-8-8-| 7x

|---------------------|
|---------------------|
|---------------------|
|8-8-8-14-14-14-14-14-|

Verse:
|----------------|
|----------------|
|----------------|
|8-8-8-8-8-8-8-8-| 3x

|---------------------|
|---------------------|
|---------------------|
|8-8-8-14-14-14-14-14-|

Chorus:
|----------------|
|----------------|
|----------------|
|7-7-7-7-7-7-7-7-|

|----------------|
|----------------|
|----------------|
|8-8-8-8-8-8-8-8-|

|------------------------|
|------------------------|
|------------------------|
|12-12-12-12-12-12-12-12-| 2x

|----------------|
|----------------|
|----------------|
|7-7-7-7-7-7-7-7-|

|------------------------|
|------------------------|
|------------------------|
|15-15-15-15-15-15-15-15-|

|------------------------|
|------------------------|
|------------------------|
|12-12-12-12-12-12-12-12-| 2x

|----------------|
|----------------|
|----------------|
|7-7-7-7-7-7-7-7-|

|----------------|
|----------------|
|----------------|
|8-8-8-8-8-8-8-8-|

|------------------------|
|------------------------|
|------------------------|
|12-12-12-12-12-12-12-12-| 2x

Interlude:
|----------------|
|----------------|
|----------------|
|8-8-8-8-8-8-8---| 4x

|----------------|
|----------------|
|----------------|
|7-7-7-7-7-7-7---| 4x

That's the song, it's my first tab, but I think it's OK. 
CarverCZ

            
            
Suggest correction
Creating personal tab
Creating personal tab
You can edit any tab online and save it as your Personal.

You can edit, replace or remove any tab part or add personal notes – all changes will be seen only by you.

Personal tabs can be accessed anytime from any device, even offline.
Learn more »
Give kudos to tab author, rate the tab!
1 2 3 4 5
comments
print report bad tab
guest
You may want to rate the tab now too:
select rating
Wanna post a correction for this tab? Suggest correction