Oops, an error
Loading. Please wait.

Exploding Reloading tab

version 1
version 1

Whole song

Interactive

11,083 views 9 this week
1 commentread comment
1 2 3 4 5
x 7
add to favorites
×
Save as Personal and add changes to this tab that will be seen only by you. Learn more ›
×
You can save this tab as Personal to edit and correct it or add notes. All changes will be seen only by you. Learn more »
launch autoscroll
font size
0
reset
how to read this tab
guitar tuner
edit
Autoscroll
slow
fast
+/-
esc
set tempo
stop
Drop C# tuning

gtr 1
|--------------------------------------------------|
|--------------------------------------------------|
|------------------6-------------------------------|
|----8----8--6--8-----8--6--8--6-----------6-------|x2
|---------------------------------8--6--8-----8----|
|-8------------------------------------------------|

gtr 2                                                  both gtrs
|---------------------------------------------------|   |------|
|---------------------------------------------------|   |------|
|---------------------------------------------------|   |-9--9-|
|-8-8-8-8-8-8-8-8-8-8-8-8-8-8-8-8-8-8-8-8-8-8-8-8-8-|x2 |-9--9-|
|-8-8-8-8-8-8-8-8-8-8-8-8-8-8-8-8-8-8-8-8-8-8-8-8-8-|   |-7--7-|
|-8-8-8-8-8-8-8-8-8-8-8-8-8-8-8-8-8-8-8-8-8-8-8-8-8-|   |------|

both gtrs
|-------------------------------------------------|
|-------------------------------------------------|
|-------------------------------------------9---9-|
|-8-8-8-8-8-8-8-8-8-8-8-8-8-8-8-8-8-8-8-8-8-9---9-|x4
|-8-8-8-8-8-8-8-8-8-8-8-8-8-8-8-8-8-8-8-8-8-7---7-|
|-8-8-8-8-8-8-8-8-8-8-8-8-8-8-8-8-8-8-8-8-8-------|

both gtrs
|-------------------------------------|
|-------------------------------------|
|-----------------7-7-7-7-7-7-7-7-7-7-|
|-7-7-7-7-8-8-8-8-7-7-7-7-7-7-7-7-7-7-|
|-7-7-7-7-8-8-8-8-5-5-5-5-5-5-5-5-5-5-|
|-7-7-7-7-8-8-8-8---------------------|

|-------------------------------------|
|-------------------------------------|
|---------101010107-7-7-7-7-7-7-7-7-7-|
|-7-7-7-7-101010107-7-7-7-7-7-7-7-7-7-|
|-7-7-7-7-8-8-8-8-5-5-5-5-5-5-5-5-5-5-|
|-7-7-7-7-----------------------------|

|-------------------------------------|
|-------------------------------------|
|-----------------7-7-7-7-7-7-7-7-7-7-|
|-7-7-7-7-8-8-8-8-7-7-7-7-7-7-7-7-7-7-|
|-7-7-7-7-8-8-8-8-5-5-5-5-5-5-5-5-5-5-|
|-7-7-7-7-8-8-8-8---------------------|

repeat all once

gtr 1
|--------------------------------------------------|
|--------------------------------------------------|
|------------------6-------------------------------|
|----8----8--6--8-----8--6--8--6-----------6-------|
|---------------------------------8--6--8-----8----|
|-8------------------------------------------------|


|--------------------------------------------------|
|--------------------------------------------------|
|------------------5-------------------------------|
|----7----7--5--7-----7--5--7--5-----------5-------|
|---------------------------------7--5--7-----7----|
|-7------------------------------------------------|


|--------------------------------------------------|
|--------------------------------------------------|
|------------------6-------------------------------|
|----8----8--6--8-----8--6--8--6-----------6-------|
|---------------------------------8--6--8-----8----|
|-8------------------------------------------------|

|--------------------------------------------------|
|--------------------------------------------------|
|------------------5-------------------------------|
|----7----7--5--7-----7--5--7--5-----------5-------|
|---------------------------------7--5--7-----7----|
|-7------------------------------------------------|

gtr 2
|--------------------|
|--------------------|   listen carefully, u can here him play 7 eighth notes, 
|--------------------|   take an eight bar rest, then repeat.
|-8-8-8-8-8-8-8------|x4
|-8-8-8-8-8-8-8------|
|-8-8-8-8-8-8-8------|
.............

|--------------------|
|--------------------|
|--------------------|
|-7-7-7-7-7-7-7------|x4
|-7-7-7-7-7-7-7------|
|-7-7-7-7-7-7-7------|
.............

|--------------------|
|--------------------| 
|--------------------|
|-8-8-8-8-8-8-8------|x4
|-8-8-8-8-8-8-8------|
|-8-8-8-8-8-8-8------|
.............


|--------------------|
|--------------------|
|--------------------|
|-7-7-7-7-7-7-7------|x4
|-7-7-7-7-7-7-7------|
|-7-7-7-7-7-7-7------|
.............

pick scrape here

both gtrs
|-------------------------------------|
|-------------------------------------|
|-----------------7-7-7-7-7-7-7-7-7-7-|
|-7-7-7-7-8-8-8-8-7-7-7-7-7-7-7-7-7-7-|
|-7-7-7-7-8-8-8-8-5-5-5-5-5-5-5-5-5-5-|
|-7-7-7-7-8-8-8-8---------------------|

|-------------------------------------|
|-------------------------------------|
|---------101010107-7-7-7-7-7-7-7-7-7-|
|-7-7-7-7-101010107-7-7-7-7-7-7-7-7-7-|
|-7-7-7-7-8-8-8-8-5-5-5-5-5-5-5-5-5-5-|
|-7-7-7-7-----------------------------|

|-------------------------------------|
|-------------------------------------|
|-----------------7-7-7-7-7-7-7-7-7-7-|
|-7-7-7-7-8-8-8-8-7-7-7-7-7-7-7-7-7-7-|
|-7-7-7-7-8-8-8-8-5-5-5-5-5-5-5-5-5-5-|
|-7-7-7-7-8-8-8-8---------------------|

both gtrs
|-------------------------------------------------|
|-------------------------------------------------|
|-------------------------------------------9---9-|
|-8-8-8-8-8-8-8-8-8-8-8-8-8-8-8-8-8-8-8-8-8-9---9-|x2
|-8-8-8-8-8-8-8-8-8-8-8-8-8-8-8-8-8-8-8-8-8-7---7-|
|-8-8-8-8-8-8-8-8-8-8-8-8-8-8-8-8-8-8-8-8-8-------|


            
            
Suggest correction
Creating personal tab
Creating personal tab
You can edit any tab online and save it as your Personal.

You can edit, replace or remove any tab part or add personal notes – all changes will be seen only by you.

Personal tabs can be accessed anytime from any device, even offline.
Learn more »
comments
print report bad tab
1 comment total.
0 reply
EliteBouncer 132 Jul 27, 2008 07:17 AM

I think the intro should be

gtr 1
|--------------------------------------------------|
|--------------------------------------------------|
|------------------6-------------------------------|
|----8----8--6--8-----8--6--8--6-----------6-------|x2
|---------------------------------8--6--8-----8----|
|-8------------------------------------------------|


The rest is allright.

guest
You may want to rate the tab now too:
select rating
Wanna post a correction for this tab? Suggest correction