Oops, an error
Loading. Please wait.

Insane tab

version 1
version 1

Whole song

Interactive

40,062 views 27 this week
6 commentsread comments
1 2 3 4 5
x 12
add to favorites
×
Save as Personal and add changes to this tab that will be seen only by you. Learn more ›
×
You can save this tab as Personal to edit and correct it or add notes. All changes will be seen only by you. Learn more »
launch autoscroll
font size
0
reset
how to read this tab
guitar tuner
edit
Autoscroll
slow
fast
+/-
esc
set tempo
stop
                        Main RIFF: REPEAT as many times needed
|---------------------------------------------------------------------------|
|---------------------------------------------------------------------------|
|---------------------------------------------------------------------------|
|---------------------------------------------------------------------------|
|-8--8--8--7--7--7---7--7-------7--7--7--5--5--5----------------------------|
|-7--7--7--7--7--7---7--7--X2---5--5--5--5--5--5--X2------------------------|
PM..........................................................................

Synth fill part
|---------------------------------------------------------------------------|
|---------------------------------------------------------------------------|
|---------------------------------------------------------------------------|
|---------------------------------------------------------------------------|
|---12------14-15--12-------------------------------------------------------|
|---------------------------------------------------------------------------|

Chord after synth fill.  Really listen to this part for the strumming and its just
one chord
|---------------------------------------------------------------------------|
|--5------------------------------------------------------------------------|
|--7------------------------------------------------------------------------|
|--7------------------------------------------------------------------------|
|--5------------------------------------------------------------------------|
|---------------------------------------------------------------------------|


1:42          SOLO
|-------------/8-8\7-7--7/10\-------------------------8-8-7-7--7/10\---------|
|--5----5---5----------------------5h6-6-6-6-8-10----------------------------|
|----------------------------------------------------------------------------|
|----------------------------------------------------------------------------|
|----------------------------------------------------------------------------|
|----------------------------------------------------------------------------|

|----------------/10--12-12-13-13--12--8--8-8-/10-10\----10\----------------|
|--5h6--6--6-6-------------------------------------------------5-6-6-6------|
|---------------------------------------------------------------------------|
|---------------------------------------------------------------------------|
|---------------------------------------------------------------------------|
|---------------------------------------------------------------------------|


End solo
e|--------------------------------------------------------------------------|
B|-6--6-6-6-6---------------------------------------------------------------|
G|--------------------------------------------------------------------------|
D|--------------------------------------------------------------------------|
A|--------------------------------------------------------------------------|
E|--------------------------------------------------------------------------|


2:12   Back to the riff
e|--------------------------------------------------------------------------|
B|--------------------------------------------------------------------------|
G|--------------------------------------------------------------------------|
D|--------------------------------------------------------------------------|
A|-8--8--8--7--7--7---7--7-------7--7--7--5--5--5---------------------------|
D|-7--7--7--7--7--7---7--7--X2---5--5--5--5--5--5--X2-----------------------|
PM..........................................................................

            
            
Suggest correction
Creating personal tab
Creating personal tab
You can edit any tab online and save it as your Personal.

You can edit, replace or remove any tab part or add personal notes – all changes will be seen only by you.

Personal tabs can be accessed anytime from any device, even offline.
Learn more »
comments
print report bad tab
6 comments total. Showing first comments.
+1 reply
Toguro 31 Aug 12, 2008 02:12 PM

I love this song, slow and cool

0 reply
savio23q 10 Sep 11, 2008 11:00 PM

Most these Scars on Broadway songs are dirt easy LOL

Sweet tab =)

0 reply
shawn126 10 Sep 21, 2008 03:01 PM

um, i think you got most of it right, but if you play this for the main part it sounds much better
(by the way, its in dropped C, not dropped c sharp.... if you learned any SOAD songs you shouldve realized thats what he plays 98% of songs in)


D|-9--9--9--7--7--7---7--7-----0--7--7--7--5--5--5--------------------
C|-7--7--7--7--7--7---7--7-----0--5--5--5--5--5--5--X2---------------


full tuning for it (high to low)
d
a
f
c
g
c

guest
You may want to rate the tab now too:
select rating
Wanna post a correction for this tab? Suggest correction