Oops, an error
Loading. Please wait.

Stoner Hate tab

version 3
version 3

Whole song

Interactive

564 views 1 this week
no commentswrite comment
1 2 3 4 5
3 more votes to show rating
add to favorites
×
Save as Personal and add changes to this tab that will be seen only by you. Learn more ›
×
You can save this tab as Personal to edit and correct it or add notes. All changes will be seen only by you. Learn more »
launch autoscroll
font size
0
reset
how to read this tab
guitar tuner
backing track
0:00
0:00
edit
Autoscroll
slow
fast
+/-
esc
set tempo
stop
  Stoner Hate                                   

Scars On Broadway
    
      Q                        S  S  S  S Q     S  S  S  S  
D#||-------------------------------------------------------|
A#||-------------------------------------------------------|
F#||--------------------------10-10-10-10------10-10-10-10-|
C#||--8------------------------9--9--9--9-8-----9--9--9--9-|
G#||--8-----------------------------------8----------------|
C#||-------------------------------------------------------|


  Q     S  S  S  S  S  S  S  S  S  S  S  S  
-------------------------------------------|
-------------------------------------------|
-------10-10-10-10-10-10-10-10-10-10-10-10-|
--8-----9--9--9--9--9--9--9--9--9--9--9--9-|
--8----------------------------------------|
-------------------------------------------|


  Q     S  S  S  S Q     S  S  S  S    Q     S  S  S  S  S  S  S  S  S  S  S S  
------------------------------------|------------------------------------------|
------------------------------------|------------------------------------------|
-------10-10-10-10------10-10-10-10-|-------10-10-10-10-10-10-10-10-10-10-10---|
--8-----9--9--9--9-8-----9--9--9--9-|--8-----9--9--9--9--9--9--9--9--9--9--9---|
--8----------------8----------------|--8---------------------------------------|
------------------------------------|------------------------------------------|


  PM PM PM PM     PM PM PM PM PM PM     PM PM  
  S  S  S  S  S S S  S  S  S  S  S  S S S  S   
----------------------------------------------|
----------------------------------------------|
----------------------------------------------|
--------------0---------------------0---------|
--0--1--0--1--0---0--1--0--1--0--1--0---0--1--|
--0--1--0--1--0---0--1--0--1--0--1--0---0--1--|


  PM PM PM PM PM PM PM PM PM PM PM PM PM PM PM PM  
  S  S  S  S  S  S  S  S  S  S  S  S  S  S  S  S   
--------------------------------------------------|
--------------------------------------------------|
--------------------------------------------------|
--------------------------------------------------|
--0--1--0--1--0--1--0--1--0--1--0--1--0--1--0--1--|
--0--1--0--1--0--1--0--1--0--1--0--1--0--1--0--1--|


  PM PM PM PM     PM PM PM PM PM PM     PM PM  
  S  S  S  S  S S S  S  S  S  S  S  S S S  S   
----------------------------------------------|
----------------------------------------------|
----------------------------------------------|
--------------0---------------------0---------|
--0--1--0--1--0---0--1--0--1--0--1--0---0--1--|
--0--1--0--1--0---0--1--0--1--0--1--0---0--1--|


  PM PM PM PM PM PM PM PM                                        
  S  S  S  S  S  S  S  S   T  T  T  T  T  T T T T T T T T T T T  
----------------------------------------------------------------|
----------------------------------------------------------------|
----------------------------------------------------------------|
----------------------------------------------------------------|
--0--1--0--1--0--1--0--1--15-14-13-12-11-10-9-8-7-6-5-4-3-2-1-0-|
--0--1--0--1--0--1--0--1----------------------------------------|


   S  S  S  S  S  S  S  S  S  S  S  S  S  S  S  S  
--------------------------------------------------|
--------------------------------------------------|
--------------------------------------------------|
--------------------------------------------------|
--12-13-12-13-12-13-12-13-12-13-12-13-12-13-12-13-|
--12-13-12-13-12-13-12-13-12-13-12-13-12-13-12-13-|


   S  S  S  S  S  S  S  S  S  S  S  S  S  S  S  S  
--------------------------------------------------|
--------------------------------------------------|
--------------------------------------------------|
--------------------------------------------------|
--15-16-15-16-15-16-15-16-15-16-15-16-15-16-15-16-|
--15-16-15-16-15-16-15-16-15-16-15-16-15-16-15-16-|


   S  S  S  S  S  S  S  S  S  S  S  S  S  S  S  S  
--------------------------------------------------|
--------------------------------------------------|
--------------------------------------------------|
--------------------------------------------------|
--12-13-12-13-12-13-12-13-12-13-12-13-12-13-12-13-|
--12-13-12-13-12-13-12-13-12-13-12-13-12-13-12-13-|


   S  S  S  S  S  S  S  S  S  S  S  S  S  S  S  S  
--------------------------------------------------|
--------------------------------------------------|
--------------------------------------------------|
--------------------------------------------------|
--15-16-15-16-15-16-15-16-15-16-15-16-15-16-15-16-|
--15-16-15-16-15-16-15-16-15-16-15-16-15-16-15-16-|


  PM PM PM PM     PM PM PM PM PM PM     PM PM  
  S  S  S  S  S S S  S  S  S  S  S  S S S  S   
----------------------------------------------|
----------------------------------------------|
----------------------------------------------|
--------------0---------------------0---------|
--0--1--0--1--0---0--1--0--1--0--1--0---0--1--|
--0--1--0--1--0---0--1--0--1--0--1--0---0--1--|


  PM PM PM PM PM PM PM PM PM PM PM PM PM PM PM PM  
  S  S  S  S  S  S  S  S  S  S  S  S  S  S  S  S   
--------------------------------------------------|
--------------------------------------------------|
--------------------------------------------------|
--------------------------------------------------|
--0--1--0--1--0--1--0--1--0--1--0--1--0--1--0--1--|
--0--1--0--1--0--1--0--1--0--1--0--1--0--1--0--1--|


  PM PM PM PM     PM PM PM PM PM PM     PM PM  
  S  S  S  S  S S S  S  S  S  S  S  S S S  S   
----------------------------------------------|
----------------------------------------------|
----------------------------------------------|
--------------0---------------------0---------|
--0--1--0--1--0---0--1--0--1--0--1--0---0--1--|
--0--1--0--1--0---0--1--0--1--0--1--0---0--1--|


  PM PM PM PM PM PM PM PM PM PM PM PM PM PM PM PM  
  S  S  S  S  S  S  S  S  S  S  S  S  S  S  S  S   
--------------------------------------------------|
--------------------------------------------------|
--------------------------------------------------|
--------------------------------------------------|
--0--1--0--1--0--1--0--1--0--1--0--1--0--1--0--0--|
--0--1--0--1--0--1--0--1--0--1--0--1--0--1--0--0--|


  E  E   S  S  S  S E  E   S  S  S  S    E  E   S  S  S  S E  E   S  S  S  S  
--------------------------------------|--------------------------------------|
--------------------------------------|--------------------------------------|
--------10-10-10-10-------10-10-10-10-|--------10-10-10-10-------10-10-10-10-|
--8--8---9--9--9--9-8--8---9--9--9--9-|--8--8---9--9--9--9-8--8---9--9--9--9-|
--8--8--------------8--8--------------|--8--8--------------8--8--------------|
--------------------------------------|--------------------------------------|


  E  E   S  S  S  S E  E   S  S  S  S  
--------------------------------------|
--------------------------------------|
--------10-10-10-10-------10-10-10-10-|
--8--8---9--9--9--9-8--8---9--9--9--9-|
--8--8--------------8--8--------------|
--------------------------------------|


  E  E   S  S  S  S E   S  S  S  S  S  S  
-----------------------------------------|
-----------------------------------------|
--------10-10-10-10----10-10-10-10-10-10-|
--8--8---9--9--9--9-8---9--9--9--9--9--9-|
--8--8--------------8--------------------|
-----------------------------------------|


   S  S  S  S  S  S  S  S  S  S  S  S  S  S  S  S  
--------------------------------------------------|
--------------------------------------------------|
--------------------------------------------------|
--------------------------------------------------|
--12-13-12-13-12-13-12-13-12-13-12-13-12-13-12-13-|
--12-13-12-13-12-13-12-13-12-13-12-13-12-13-12-13-|


   S  S  S  S  S  S  S  S  S  S  S  S  S  S  S  S  
--------------------------------------------------|
--------------------------------------------------|
--------------------------------------------------|
--------------------------------------------------|
--15-16-15-16-15-16-15-16-15-16-15-16-15-16-15-16-|
--15-16-15-16-15-16-15-16-15-16-15-16-15-16-15-16-|


   S  S  S  S  S  S  S  S  S  S  S  S  S  S  S  S  
--------------------------------------------------|
--------------------------------------------------|
--------------------------------------------------|
--------------------------------------------------|
--12-13-12-13-12-13-12-13-12-13-12-13-12-13-12-13-|
--12-13-12-13-12-13-12-13-12-13-12-13-12-13-12-13-|


   S  S  S  S  S  S  S  S  S  S  S  S  S  S  S  S  
--------------------------------------------------|
--------------------------------------------------|
--------------------------------------------------|
--------------------------------------------------|
--15-16-15-16-15-16-15-16-15-16-15-16-15-16-15-16-|
--15-16-15-16-15-16-15-16-15-16-15-16-15-16-15-16-|


  PM PM PM PM     PM PM PM PM PM PM     PM PM  
  S  S  S  S  S S S  S  S  S  S  S  S S S  S   
----------------------------------------------|
----------------------------------------------|
----------------------------------------------|
--------------0---------------------0---------|
--0--1--0--1--0---0--1--0--1--0--1--0---0--1--|
--0--1--0--1--0---0--1--0--1--0--1--0---0--1--|


  PM PM PM PM PM PM PM PM PM PM PM PM PM PM PM PM  
  S  S  S  S  S  S  S  S  S  S  S  S  S  S  S  S   
--------------------------------------------------|
--------------------------------------------------|
--------------------------------------------------|
--------------------------------------------------|
--0--1--0--1--0--1--0--1--0--1--0--1--0--1--0--1--|
--0--1--0--1--0--1--0--1--0--1--0--1--0--1--0--1--|


  PM PM PM PM     PM PM PM PM PM PM     PM PM  
  S  S  S  S  S S S  S  S  S  S  S  S S S  S   
----------------------------------------------|
----------------------------------------------|
----------------------------------------------|
--------------0---------------------0---------|
--0--1--0--1--0---0--1--0--1--0--1--0---0--1--|
--0--1--0--1--0---0--1--0--1--0--1--0---0--1--|


  PM PM PM PM PM PM PM PM PM PM PM PM PM PM PM PM  
  S  S  S  S  S  S  S  S  S  S  S  S  S  S  S  S   
--------------------------------------------------|
--------------------------------------------------|
--------------------------------------------------|
--------------------------------------------------|
--0--1--0--1--0--1--0--1--0--1--0--1--0--1--0--0--|
--0--1--0--1--0--1--0--1--0--1--0--1--0--1--0--0--|


  E  E   S  S  S  S E  E   S  S  S  S    E  E   S  S  S  S E  E   S  S  S  S  
--------------------------------------|--------------------------------------|
--------------------------------------|--------------------------------------|
--------10-10-10-10-------10-10-10-10-|--------10-10-10-10-------10-10-10-10-|
--8--8---9--9--9--9-8--8---9--9--9--9-|--8--8---9--9--9--9-8--8---9--9--9--9-|
--8--8--------------8--8--------------|--8--8--------------8--8--------------|
--------------------------------------|--------------------------------------|


  E  E   S  S  S  S E  E   S  S  S  S    E  E   S  S  S  S E  E   S  S  S  S  
--------------------------------------|--------------------------------------|
--------------------------------------|--------------------------------------|
--------10-10-10-10-------10-10-10-10-|--------10-10-10-10-------10-10-10-10-|
--8--8---9--9--9--9-8--8---9--9--9--9-|--8--8---9--9--9--9-8--8---9--9--9--9-|
--8--8--------------8--8--------------|--8--8--------------8--8--------------|
--------------------------------------|--------------------------------------|


   E  E   E  E   E  E   E  E      E  E   E  E   E  E   Q     
------------------------------|-----------------------------|
------------------------------|-----------------------------|
--10-----10-----10-----10-----|--10-----10-----10-----10----|
------9------9------9------9--|------9------9------9--------|
------------------------------|-----------------------------|
------------------------------|-----------------------------|


   E  E   E  E   E  E   E  E      E  E   E  E   E  E   Q     
------------------------------|-----------------------------|
------------------------------|-----------------------------|
--10-----10-----10-----10-----|--10-----10-----10-----10----|
------9------9------9------9--|------9------9------9--------|
------------------------------|-----------------------------|
------------------------------|-----------------------------|


  E  E  E  E  E  E  E  E     E  E  E  E  E  E  Q       E  E  E  E  E  E  E  E   
--------------------------|-------------------------|--------------------------|
--------------------------|-------------------------|--------------------------|
--------2-----------------|--------2----------------|--------2-----------------|
--3--4--2--4--3--1--3--4--|--3--4--2--4--3--1--3----|--3--4--2--4--3--1--3--4--|
--3--4--0--4--3--1--3--4--|--3--4--0--4--3--1--3----|--3--4--0--4--3--1--3--4--|
--3--4-----4--3--1--3--4--|--3--4-----4--3--1--3----|--3--4-----4--3--1--3--4--|


  E  E  E  E  E  E  Q        S  S  S  S  S  S  S  S  S  S  S  S  S  S  S  S  
-------------------------|--------------------------------------------------|
-------------------------|--------------------------------------------------|
--------2----------------|--------------------------------------------------|
--3--4--2--4--3--1--3----|--------------------------------------------------|
--3--4--0--4--3--1--3----|--12-13-12-13-12-13-12-13-12-13-12-13-12-13-12-13-|
--3--4-----4--3--1--3----|--12-13-12-13-12-13-12-13-12-13-12-13-12-13-12-13-|


   S  S  S  S  S  S  S  S  S  S  S  S  S  S  S  S  
--------------------------------------------------|
--------------------------------------------------|
--------------------------------------------------|
--------------------------------------------------|
--15-16-15-16-15-16-15-16-15-16-15-16-15-16-15-16-|
--15-16-15-16-15-16-15-16-15-16-15-16-15-16-15-16-|


   S  S  S  S  S  S  S  S  S  S  S  S  S  S  S  S  
--------------------------------------------------|
--------------------------------------------------|
--------------------------------------------------|
--------------------------------------------------|
--12-13-12-13-12-13-12-13-12-13-12-13-12-13-12-13-|
--12-13-12-13-12-13-12-13-12-13-12-13-12-13-12-13-|


   S  S  S  S  S  S  S  S  S  S  S  S  S  S  S  S  
--------------------------------------------------|
--------------------------------------------------|
--------------------------------------------------|
--------------------------------------------------|
--15-16-15-16-15-16-15-16-15-16-15-16-15-16-15-16-|
--15-16-15-16-15-16-15-16-15-16-15-16-15-16-15-16-|


  PM PM PM PM     PM PM PM PM PM PM     PM PM  
  S  S  S  S  S S S  S  S  S  S  S  S S S  S   
----------------------------------------------|
----------------------------------------------|
----------------------------------------------|
--------------0---------------------0---------|
--0--1--0--1--0---0--1--0--1--0--1--0---0--1--|
--0--1--0--1--0---0--1--0--1--0--1--0---0--1--|


  PM PM PM PM PM PM PM PM PM PM PM PM PM PM PM PM  
  S  S  S  S  S  S  S  S  S  S  S  S  S  S  S  S   
--------------------------------------------------|
--------------------------------------------------|
--------------------------------------------------|
--------------------------------------------------|
--0--1--0--1--0--1--0--1--0--1--0--1--0--1--0--1--|
--0--1--0--1--0--1--0--1--0--1--0--1--0--1--0--1--|


  PM PM PM PM     PM PM PM PM PM PM     PM PM  
  S  S  S  S  S S S  S  S  S  S  S  S S S  S   
----------------------------------------------|
----------------------------------------------|
----------------------------------------------|
--------------0---------------------0---------|
--0--1--0--1--0---0--1--0--1--0--1--0---0--1--|
--0--1--0--1--0---0--1--0--1--0--1--0---0--1--|


  RATE AND COMMENT                                           
  PM               PM PM PM PM PM PM PM PM PM PM PM          
  S                S  S  S  S  S  S  S  S  S  S  S  S S E    
-----------------------------------------------------------||
-----------------------------------------------------------||
-----------------------------------------------------------||
----------------------------------------------------0------||
--0----------------1--0--1--0--1--0--1--0--1--0--1--0------||
--0----------------1--0--1--0--1--0--1--0--1--0--1--0------||




Duration Legend
---------------
W - whole
H - half
Q - quarter
E - 8th
S - 16th
T - 32nd
X - 64th
. - note dotted
|-n-|  - n-tuplets


Tablature Legend
----------------
L - tied note
x - dead note
g - grace note
(n) - ghost note
> - accentuded note
NH - natural harmonic
AH - artificial harmonic
TH - tapped harmonic
SH - semi harmonic
PH - pitch harmonic
h - hammer on
p - pull off
b - bend
br - bendRelease
pb - preBend
pbr - preBendRelease
brb - bendReleaseBend
\n/ - tremolo bar dip
\n - tremolo bar dive
-/n - tremolo bar Release up
/n\ - tremolo bar inverted dip
/n - tremolo bar return
-\n - tremolo bar Release down
S - shift slide
s - legato slide
/ -  slide into from below or out of upwards
\ -  slide into from above or out of downwards
~ - vibrato
W - wide vibrato
tr - trill
TP - tremolo picking
T - tapping
S - slap
P - pop
< - fade in
^ - brush up
v - brush down

            
            
Suggest correction
Creating personal tab
Creating personal tab
You can edit any tab online and save it as your Personal.

You can edit, replace or remove any tab part or add personal notes – all changes will be seen only by you.

Personal tabs can be accessed anytime from any device, even offline.
Learn more »
Give kudos to tab author, rate the tab!
1 2 3 4 5
comments
print report bad tab
guest
You may want to rate the tab now too:
select rating
Wanna post a correction for this tab? Suggest correction