Oops, an error
Loading. Please wait.
We have an official They Say tab made by UG professional guitarists. Check out the tab »
×
10,532 views 1 this week
8 commentsread comments
1 2 3 4 5
x 10
add to favorites
×
Save as Personal and add changes to this tab that will be seen only by you. Learn more ›
×
You can save this tab as Personal to edit and correct it or add notes. All changes will be seen only by you. Learn more »
launch autoscroll
font size
0
reset
how to read this tab
guitar tuner
backing track
0:00
0:00
edit
Autoscroll
slow
fast
+/-
esc
set tempo
stop
Author
Difficulty
new single from scars on broadway
awesome song cant wait until the 
album comes out here in new zealand.

I hope this it correct any
corrections please comment
hopefully this is the first 
scars tab yay. 


INTRO:

D#|---------------------------------------------------------|
A#|---------------------------------------------------------|
F#|---------------------------------------------------------|
C#|---------------------------------------------------------|
G#|---------------------------------------------------------|
C#|-0--0--0-0-0-0-5--5--5-5-5-5-3--3--3-3-3-3-2--2--2-2-2-2-|

D#|---------------------------------------------------------|
A#|---------------------------------------------------------|
F#|---------------------------------------------------------|
C#|---------------------------------------------------------|
G#|---------------------------------------------------------|
C#|-0--0--0-0-0-0-5--5--5-5-5-5-3--3--3-3-3-3-2--2--2-2-2-2-|


D#|---------------------------------------------|
A#|---------------------------------------------|   
F#|---------------------------------------------|  
C#|-0--0--0-0-0-0-5--5--5-5-5-5-----------------|  
G#|-0--0--0-0-0-0-5--5--5-5-5-5-----------------|  ---
C#|-0--0--0-0-0-0-5--5--5-5-5-5-----------------|     |
                                                      | 4X
                                                      |
D#|---------------------------------------------|     |
A#|---------------------------------------------|  ---
F#|---------------------------------------------|
C#|-3--3--3-3-3-3-2--2--2-2-2-2-----------------|
G#|-3--3--3-3-3-3-2--2--2-2-2-2-----------------|
C#|-3--3--3-3-3-3-2--2--2-2-2-2-----------------|

D#|------------------------------------------------|
A#|------------------------------------------------|
F#|------------------------------------------------|
C#|-3--3--3--3--3--3--3--3--7--7--7--7--7--7--7--7-|
G#|-3--3--3--3--3--3--3--3--7--7--7--7--7--7--7--7-|
C#|-3--3--3--3--3--3--3--3--7--7--7--7--7--7--7--7-|

D#|------------------------------------------------|
A#|------------------------------------------------|
F#|------------------------------------------------|
C#|-3--3--3--3--3--3--3--3--7--7--7--7--7--7--7--7-|
G#|-3--3--3--3--3--3--3--3--7--7--7--7--7--7--7--7-|
C#|-3--3--3--3--3--3--3--3--7--7--7--7--7--7--7--7-|

2nd guitar: uses 1/2 bends and some harmonics like SOAD's
'ATWA'

gtr 1
D#|---------------------------------------------|
A#|---------------------------------------------|   
F#|---------------------------------------------|  
C#|-0--0--0-0-0-0-5--5--5-5-5-5-----------------|  
G#|-0--0--0-0-0-0-5--5--5-5-5-5-----------------| 
C#|-0--0--0-0-0-0-5--5--5-5-5-5-----------------|  
                                                |obviously
                                                |played
gtr 2                                           |together
D#|---------------------------------------------|
A#|---------------------------------------------|
F#|-11b11b11b11b11b11b11b11b11b11b11b11b11b11b--|
C#|---------------------------------------------|
G#|---------------------------------------------|
C#|---------------------------------------------|

gtr 1
D#|---------------------------------------------|     
A#|---------------------------------------------|  
F#|---------------------------------------------|
C#|-3--3--3-3-3-3-2--2--2-2-2-2-----------------|
G#|-3--3--3-3-3-3-2--2--2-2-2-2-----------------|
C#|-3--3--3-3-3-3-2--2--2-2-2-2-----------------|
                                                |
gtr 2                                           |
D#|---------------------------------------------|
A#|---------------------------------------------|
F#|-11b11b11b11b11b11b11b11b11b11b11b11b11b11b--|
C#|---------------------------------------------|
G#|---------------------------------------------|
C#|---------------------------------------------|

gtr 1
D#|---------------------------------------------|
A#|---------------------------------------------|   
F#|---------------------------------------------|  
C#|-0--0--0-0-0-0-5--5--5-5-5-5-----------------|  
G#|-0--0--0-0-0-0-5--5--5-5-5-5-----------------| 
C#|-0--0--0-0-0-0-5--5--5-5-5-5-----------------|  
                                                |
                                                |
gtr 2                                           |
D#|---------------------------------------------|
A#|---------------------------------------------|
F#|-11b11b11b11b11b11b11b11b11b11b11b11b11b11b--|
C#|---------------------------------------------|
G#|---------------------------------------------|
C#|---------------------------------------------|

gtr 1
D#|---------------------------------------------|     
A#|---------------------------------------------|  
F#|---------------------------------------------|
C#|-3--3--3-3-3-3-2--2--2-2-2-2-----------------|
G#|-3--3--3-3-3-3-2--2--2-2-2-2-----------------|
C#|-3--3--3-3-3-3-2--2--2-2-2-2-----------------|
                                                |
gtr 2                                           |
D#|---------------------------------------------|
A#|---------------------------------------------|
F#|-11b11b11b11b11b11b11b11b11b11b11b11b11b11b--|
C#|---------------------------------------------|
G#|---------------------------------------------|
C#|---------------------------------------------|


D#|---------------------------------------------|
A#|---------------------------------------------|   
F#|---------------------------------------------|  
C#|-0--0--0-0-0-0-5--5--5-5-5-5-----------------|  
G#|-0--0--0-0-0-0-5--5--5-5-5-5-----------------|  ---
C#|-0--0--0-0-0-0-5--5--5-5-5-5-----------------|     |
                                                      | 4X
                                                      |
D#|---------------------------------------------|     |
A#|---------------------------------------------|  ---
F#|---------------------------------------------|
C#|-3--3--3-3-3-3-2--2--2-2-2-2-----------------|
G#|-3--3--3-3-3-3-2--2--2-2-2-2-----------------|
C#|-3--3--3-3-3-3-2--2--2-2-2-2-----------------|

D#|------------------------------------------------|
A#|------------------------------------------------|
F#|------------------------------------------------|
C#|-3--3--3--3--3--3--3--3--7--7--7--7--7--7--7--7-|
G#|-3--3--3--3--3--3--3--3--7--7--7--7--7--7--7--7-|
C#|-3--3--3--3--3--3--3--3--7--7--7--7--7--7--7--7-|

D#|------------------------------------------------|
A#|------------------------------------------------|
F#|------------------------------------------------|
C#|-3--3--3--3--3--3--3--3--7--7--7--7--7--7--7--7-|
G#|-3--3--3--3--3--3--3--3--7--7--7--7--7--7--7--7-|
C#|-3--3--3--3--3--3--3--3--7--7--7--7--7--7--7--7-|

gtr 1
D#|---------------------------------------------|
A#|---------------------------------------------|   
F#|---------------------------------------------|  
C#|-0--0--0-0-0-0-5--5--5-5-5-5-----------------|  
G#|-0--0--0-0-0-0-5--5--5-5-5-5-----------------| 
C#|-0--0--0-0-0-0-5--5--5-5-5-5-----------------|
                                                |
gtr 2                                           |    
D#|---------------------------------------------|
A#|---------------------------------------------|
F#|-11b11b11b11b11b11b11b11b11b11b11b11b11b11b--|
C#|---------------------------------------------|
G#|---------------------------------------------|
C#|---------------------------------------------|

gtr 1
D#|---------------------------------------------|     
A#|---------------------------------------------|  
F#|---------------------------------------------|
C#|-3--3--3-3-3-3-2--2--2-2-2-2-----------------|
G#|-3--3--3-3-3-3-2--2--2-2-2-2-----------------|
C#|-3--3--3-3-3-3-2--2--2-2-2-2-----------------|
                                                |
gtr 2                                           |
D#|---------------------------------------------|
A#|---------------------------------------------|
F#|-11b11b11b11b11b11b11b11b11b11b11b11b11b11b--|
C#|---------------------------------------------|
G#|---------------------------------------------|
C#|---------------------------------------------|

gtr 1
D#|---------------------------------------------|
A#|---------------------------------------------|   
F#|---------------------------------------------|  
C#|-0--0--0-0-0-0-5--5--5-5-5-5-----------------|  
G#|-0--0--0-0-0-0-5--5--5-5-5-5-----------------| 
C#|-0--0--0-0-0-0-5--5--5-5-5-5-----------------|
                                                |
gtr 2                                           |    
D#|---------------------------------------------|
A#|---------------------------------------------|
F#|-11b11b11b11b11b11b11b11b11b11b11b11b11b11b--|
C#|---------------------------------------------|
G#|---------------------------------------------|
C#|---------------------------------------------|

gtr 1
D#|---------------------------------------------|     
A#|---------------------------------------------|  
F#|---------------------------------------------|
C#|-3--3--3-3-3-3-2--2--2-2-2-2-----------------|
G#|-3--3--3-3-3-3-2--2--2-2-2-2-----------------|
C#|-3--3--3-3-3-3-2--2--2-2-2-2-----------------|
                                                |
gtr 2                                           |
D#|---------------------------------------------|
A#|---------------------------------------------|
F#|-11b11b11b11b11b11b11b11b11b11b11b11b11b11b--|
C#|---------------------------------------------|
G#|---------------------------------------------|
C#|---------------------------------------------|


D#|------------------------------------------------|
A#|------------------------------------------------|
F#|------------------------------------------------|
C#|-3--3--3--3--3--3--3--3--7--7--7--7--7--7--7--7-|
G#|-3--3--3--3--3--3--3--3--7--7--7--7--7--7--7--7-|
C#|-3--3--3--3--3--3--3--3--7--7--7--7--7--7--7--7-|

D#|------------------------------------------------|
A#|------------------------------------------------|
F#|------------------------------------------------|
C#|-3--3--3--3--3--3--3--3--7--7--7--7--7--7--7--7-|
G#|-3--3--3--3--3--3--3--3--7--7--7--7--7--7--7--7-|
C#|-3--3--3--3--3--3--3--3--7--7--7--7--7--7--7--7-|

gtr 1
D#|---------------------------------------------|
A#|---------------------------------------------|   
F#|---------------------------------------------|  
C#|-0--0--0-0-0-0-5--5--5-5-5-5-----------------|  
G#|-0--0--0-0-0-0-5--5--5-5-5-5-----------------| 
C#|-0--0--0-0-0-0-5--5--5-5-5-5-----------------|
                                                |
gtr 2                                           |    
D#|---------------------------------------------|
A#|---------------------------------------------|
F#|-11b11b11b11b11b11b11b11b11b11b11b11b11b11b--|
C#|---------------------------------------------|
G#|---------------------------------------------|
C#|---------------------------------------------|

gtr 1
D#|---------------------------------------------|     
A#|---------------------------------------------|  
F#|---------------------------------------------|
C#|-3--3--3-3-3-3-2--2--2-2-2-2-----------------|
G#|-3--3--3-3-3-3-2--2--2-2-2-2-----------------|
C#|-3--3--3-3-3-3-2--2--2-2-2-2-----------------|
                                                |
gtr 2                                           |
D#|---------------------------------------------|
A#|---------------------------------------------|
F#|-11b11b11b11b11b11b11b11b11b11b11b11b11b11b--|
C#|---------------------------------------------|
G#|---------------------------------------------|
C#|---------------------------------------------|

gtr 1
D#|---------------------------------------------|
A#|---------------------------------------------|   
F#|---------------------------------------------|  
C#|-0--0--0-0-0-0-5--5--5-5-5-5-----------------|  
G#|-0--0--0-0-0-0-5--5--5-5-5-5-----------------| 
C#|-0--0--0-0-0-0-5--5--5-5-5-5-----------------|
                                                |
gtr 2                                           |    
D#|---------------------------------------------|
A#|---------------------------------------------|
F#|-11b11b11b11b11b11b11b11b11b11b11b11b11b11b--|
C#|---------------------------------------------|
G#|---------------------------------------------|
C#|---------------------------------------------|

gtr 1
D#|---------------------------------------------|     
A#|---------------------------------------------|  
F#|---------------------------------------------|
C#|-3--3--3-3-3-3-2--2--2-2-2-2-----------------|
G#|-3--3--3-3-3-3-2--2--2-2-2-2-----------------|
C#|-3--3--3-3-3-3-2--2--2-2-2-2-----------------|
                                                |
gtr 2                                           |
D#|---------------------------------------------|
A#|---------------------------------------------|
F#|-11b11b11b11b11b11b11b11b11b11b11b11b11b11b--|
C#|---------------------------------------------|
G#|---------------------------------------------|
C#|---------------------------------------------|

gtr 1
D#|---------------------------------------------||
A#|---------------------------------------------||   
F#|---------------------------------------------||  
C#|-0--0--0-0-0-0-5--5--5-5-5-5-----------------||  
G#|-0--0--0-0-0-0-5--5--5-5-5-5-----------------|| 
C#|-0--0--0-0-0-0-5--5--5-5-5-5-----------------||
                                                ||
gtr 2                                           ||    
D#|---------------------------------------------||
A#|---------------------------------------------||
F#|-13b13b13b13b13b13b13b13b13b13b13b13b13b13b--||
C#|---------------------------------------------||
G#|---------------------------------------------||
C#|---------------------------------------------||
                                                ||
gtr 3                                           ||
D#|---------------------------------------------||
A#|-12-12-12-12-12-12-12-12-12-12-12-12-12-12---||
F#|---------------------------------------------||
C#|---------------------------------------------||
G#|---------------------------------------------||
C#|---------------------------------------------||

gtr 1
D#|---------------------------------------------||     
A#|---------------------------------------------||  
F#|---------------------------------------------||
C#|-3--3--3-3-3-3-2--2--2-2-2-2-----------------||
G#|-3--3--3-3-3-3-2--2--2-2-2-2-----------------||
C#|-3--3--3-3-3-3-2--2--2-2-2-2-----------------||
                                                ||
gtr 2                                           ||
D#|---------------------------------------------||
A#|---------------------------------------------||
F#|-13b13b13b13b13b13b13b13b13b13b13b13b13b13b--||
C#|---------------------------------------------||
G#|---------------------------------------------||
C#|---------------------------------------------||
                                                ||
gtr 3                                           ||
D#|---------------------------------------------||
A#|-12-12-12-12-12-12-12-12-12-12-12-12-12-12---||
F#|---------------------------------------------||
C#|---------------------------------------------||
G#|---------------------------------------------||
C#|---------------------------------------------||

gtr 1
D#|---------------------------------------------||
A#|---------------------------------------------||   
F#|---------------------------------------------||  
C#|-0--0--0-0-0-0-5--5--5-5-5-5-----------------||  
G#|-0--0--0-0-0-0-5--5--5-5-5-5-----------------|| 
C#|-0--0--0-0-0-0-5--5--5-5-5-5-----------------||
                                                ||
gtr 2                                           ||    
D#|---------------------------------------------||
A#|---------------------------------------------||
F#|-13b13b13b13b13b13b13b13b13b13b13b13b13b13b--||
C#|---------------------------------------------||
G#|---------------------------------------------||
C#|---------------------------------------------||
                                                ||
gtr 3                                           ||
D#|---------------------------------------------||
A#|-12-12-12-12-12-12-12-12-12-12-12-12-12-12---||
F#|---------------------------------------------||
C#|---------------------------------------------||
G#|---------------------------------------------||
C#|---------------------------------------------||

gtr 1
D#|---------------------------------------------||     
A#|---------------------------------------------||  
F#|---------------------------------------------||
C#|-3--3--3-3-3-3-2--2--2-2-2-2-----------------||
G#|-3--3--3-3-3-3-2--2--2-2-2-2-----------------||
C#|-3--3--3-3-3-3-2--2--2-2-2-2-----------------||
                                                ||
gtr 2                                           ||
D#|---------------------------------------------||
A#|---------------------------------------------||
F#|-13b13b13b13b13b13b13b13b13b13b13b13b13b13b--||
C#|---------------------------------------------||
G#|---------------------------------------------||
C#|---------------------------------------------||
                                                ||
gtr 3                                           ||
D#|---------------------------------------------||
A#|-12-12-12-12-12-12-12-12-12-12-12-12-12-12---||
F#|---------------------------------------------||
C#|---------------------------------------------||
G#|---------------------------------------------||
C#|---------------------------------------------||



            
            
Suggest correction
Creating personal tab
Creating personal tab
You can edit any tab online and save it as your Personal.

You can edit, replace or remove any tab part or add personal notes – all changes will be seen only by you.

Personal tabs can be accessed anytime from any device, even offline.
Learn more »
comments
print report bad tab
8 comments total. Showing first comments.
0 reply
mogan777 70 Apr 02, 2008 05:07 PM

not 100% sure about the tuning...but it still looks good to me

0 reply
mogan777 70 Apr 03, 2008 01:12 PM

yeah im almost positive the tuning is drop Db (high to low Db Ab Db Gb Bb Eb) everything else that ive tried is right...havent played the whole thing yet

0 reply
mogan777 70 Apr 03, 2008 01:13 PM

my bad i meant low to high is Db Ab Db Gb Bb Eb

guest
You may want to rate the tab now too:
select rating
Wanna post a correction for this tab? Suggest correction