Oops, an error
Loading. Please wait.
We have an official They Say tab made by UG professional guitarists. Check out the tab »
×
87,925 views 36 this week
37 commentsread comments
1 2 3 4 5
x 66
add to favorites
×
Save as Personal and add changes to this tab that will be seen only by you. Learn more ›
×
You can save this tab as Personal to edit and correct it or add notes. All changes will be seen only by you. Learn more »
launch autoscroll
font size
0
reset
how to read this tab
guitar tuner
backing track
0:00
0:00
edit
Autoscroll
slow
fast
+/-
esc
set tempo
stop
Author
----------------------------------------------------------------------------
                      Scars on broadway - They say
----------------------------------------------------------------------------

Artist: Scars on broadway
Release: 28 March, 2008
Tabbed by: Aarón Polanco
Email:aaronpolancoc@hotmail.com

Tuning: C# G# C# F# A# D# (Electric, Distorted)

Intro:

D#|--------------------------------|---------------------------------|
A#|--------------------------------|---------------------------------|
F#|--------------------------------|---------------------------------|   x2
C#|--------------------------------|---------------------------------|
G#|--------------------------------|---------------------------------|
C#|-0--0---0-0-0-0--5--5---5-5-5-5-|-3--3---3-3-3-3--2--2---2-2-2-2--|

Part 1:

D#|--------------------------------|---------------------------------|
A#|--------------------------------|---------------------------------|
F#|--------------------------------|---------------------------------|  x4
C#|-0--0---0-0-0-0--5--5---5-5-5-5-|-3--3---3-3-3-3--2--2---2-2-2-2--|
G#|-0--0---0-0-0-0--5--5---5-5-5-5-|-3--3---3-3-3-3--2--2---2-2-2-2--|
C#|-0--0---0-0-0-0--5--5---5-5-5-5-|-3--3---3-3-3-3--2--2---2-2-2-2--|

Part 2:

D#|-------------------------|-------------------------|
A#|-------------------------|-------------------------|
F#|-------------------------|-2--2--2--2--2--2--2--2--| x2
C#|-3--3--3--3--3--3--3--3--|-2--2--2--2--2--2--2--2--|
G#|-3--3--3--3--3--3--3--3--|-0--0--0--0--0--0--0--0--|
C#|-3--3--3--3--3--3--3--3--|-------------------------|

Part 3: (x2)

D#|--------------------------------|---------------------------------|
A#|--------------------------------|---------------------------------|
F#|--11~11~11~11~11~11~11~11~11~11~|11~11~11~11~-(Repeat-many--------|
C#|--------------------------------|------------------times)---------|
G#|--------------------------------|---------------------------------|
C#|--------------------------------|---------------------------------|
  |
  | Back-up:
  |  
D#|--------------------------------|---------------------------------|
A#|--------------------------------|---------------------------------|
F#|--------------------------------|---------------------------------|
C#|-0--0---0-0-0-0--5--5---5-5-5-5-|-3--3---3-3-3-3--2--2---2-2-2-2--|
G#|-0--0---0-0-0-0--5--5---5-5-5-5-|-3--3---3-3-3-3--2--2---2-2-2-2--|
C#|-0--0---0-0-0-0--5--5---5-5-5-5-|-3--3---3-3-3-3--2--2---2-2-2-2--|

Repeat intro:

D#|--------------------------------|---------------------------------|
A#|--------------------------------|---------------------------------|
F#|--------------------------------|---------------------------------|   x2
C#|--------------------------------|---------------------------------|
G#|--------------------------------|---------------------------------|
C#|-0--0---0-0-0-0--5--5---5-5-5-5-|-3--3---3-3-3-3--2--2---2-2-2-2--|

Repeat Part 1 (but this time only twice):

D#|--------------------------------|---------------------------------|
A#|--------------------------------|---------------------------------|
F#|--------------------------------|---------------------------------|  x2
C#|-0--0---0-0-0-0--5--5---5-5-5-5-|-3--3---3-3-3-3--2--2---2-2-2-2--|
G#|-0--0---0-0-0-0--5--5---5-5-5-5-|-3--3---3-3-3-3--2--2---2-2-2-2--|
C#|-0--0---0-0-0-0--5--5---5-5-5-5-|-3--3---3-3-3-3--2--2---2-2-2-2--|

Repeat part 2:

D#|-------------------------|-------------------------|
A#|-------------------------|-------------------------|
F#|-------------------------|-2--2--2--2--2--2--2--2--| x2
C#|-3--3--3--3--3--3--3--3--|-2--2--2--2--2--2--2--2--|
G#|-3--3--3--3--3--3--3--3--|-0--0--0--0--0--0--0--0--|
C#|-3--3--3--3--3--3--3--3--|-------------------------|

Repeat part 3: (x2)

D#|--------------------------------|---------------------------------|
A#|--------------------------------|---------------------------------|
F#|--11~11~11~11~11~11~11~11~11~11~|11~11~11~11~-(Repeat-many--------|
C#|--------------------------------|------------------times)---------|
G#|--------------------------------|---------------------------------|
C#|--------------------------------|---------------------------------|
  |
  | Back-up:
  |  
D#|--------------------------------|---------------------------------|
A#|--------------------------------|---------------------------------|
F#|--------------------------------|---------------------------------|
C#|-0--0---0-0-0-0--5--5---5-5-5-5-|-3--3---3-3-3-3--2--2---2-2-2-2--|
G#|-0--0---0-0-0-0--5--5---5-5-5-5-|-3--3---3-3-3-3--2--2---2-2-2-2--|
C#|-0--0---0-0-0-0--5--5---5-5-5-5-|-3--3---3-3-3-3--2--2---2-2-2-2--|

 *Repeat part 2 

 *Repeat part 3

Outro: (x2)

D#|--------------------------------|---------------------------------|
A#|--------------------------------|---------------------------------|
F#|--13~13~13~13~13~13~13~13~13~13~|13~13~13~13~-(Repeat-many--------|
C#|--------------------------------|------------------times)---------|
G#|--------------------------------|---------------------------------|
C#|--------------------------------|---------------------------------|
  |
  | Back-up:
  |  
D#|--------------------------------|---------------------------------|
A#|--------------------------------|---------------------------------|
F#|--------------------------------|---------------------------------|
C#|-0--0---0-0-0-0--5--5---5-5-5-5-|-3--3---3-3-3-3--2--2---2-2-2-2--|
G#|-0--0---0-0-0-0--5--5---5-5-5-5-|-3--3---3-3-3-3--2--2---2-2-2-2--|
C#|-0--0---0-0-0-0--5--5---5-5-5-5-|-3--3---3-3-3-3--2--2---2-2-2-2--|


That´s all please mail me with comments, questions and corrections.
Aarón y Jhenny forever!!!!!


            
            
Suggest correction
Creating personal tab
Creating personal tab
You can edit any tab online and save it as your Personal.

You can edit, replace or remove any tab part or add personal notes – all changes will be seen only by you.

Personal tabs can be accessed anytime from any device, even offline.
Learn more »
comments
print report bad tab
37 comments total. Showing first comments. show 1 bad comment
+5 reply
horandago 219 May 17, 2008 05:18 AM

its definately 0 5 3 2
he does it live

+4 reply
guitaristguy043 36 May 21, 2008 05:37 PM

great tab man

guest
You may want to rate the tab now too:
select rating
Wanna post a correction for this tab? Suggest correction