Oops, an error
Loading. Please wait.
We have an official They Say tab made by UG professional guitarists. Check out the tab »
×
101,886 views 39 this week
12 commentsread comments
1 2 3 4 5
x 14
add to favorites
×
Save as Personal and add changes to this tab that will be seen only by you. Learn more ›
×
You can save this tab as Personal to edit and correct it or add notes. All changes will be seen only by you. Learn more »
launch autoscroll
font size
0
reset
how to read this tab
guitar tuner
backing track
0:00
0:00
edit
Autoscroll
slow
fast
+/-
esc
set tempo
stop
Author
Difficulty
SOB just put this out and it is AWESOME gave me chills

Its well easy and im really bored so i tabbed it XD       first tab btw


[Intro] (x2)

yall    (00:00)
Eb|---------------------------------------------------------|
Bb|---------------------------------------------------------|
Gb|---------------------------------------------------------|
Db|---------------------------------------------------------|
Ab|---------------------------------------------------------|
Db|-0--0--0-0-0-0-5--5--5-5-5-5-3--3--3-3-3-3-2--2--2-2-2-2-|


[Daron Is Genius]  (x4)   

(00:14)
Eb|---------------------------------------------------------|
Bb|---------------------------------------------------------|
Gb|---------------------------------------------------------|
Db|---------------------------------------------------------|
Ab|-0--0--0-0-0-0-5--5--5-5-5-5-3--3--3-3-3-3-2--2--2-2-2-2-|
Db|-0--0--0-0-0-0-5--5--5-5-5-5-3--3--3-3-3-3-2--2--2-2-2-2-|

I walk the line, the line I choose, I see the people infront of me!
I climb the wall, the wall of news, I watch them show the tradgedy!


[Pre-Chorus] (x2)    

(00:41)
Eb|---------------------------------------------------------|
Bb|---------------------------------------------------------|
Gb|---------------------------------------------------------|
Db|---------------------------------------------------------|
Ab|-3--3--3-3-3-3-3--3--3-3-3-3-7--7--7-7-7-7-7--7--7-7-7-7-|
Db|-3--3--3-3-3-3-3--3--3-3-3-3-7--7--7-7-7-7-7--7--7-7-7-7-|

If you were me could you defend thier giving rise to all of them.
Lets fuck the world with all its strength they say its all about to end!


[Chorus] 

(00:55 )

Gtr 1:
Eb|---------------------------------------------------------|
Bb|---------------------------------------------------------|
Gb|---------------------------------------------------------|
Db|---------------------------------------------------------|
Ab|-0--0--0-0-0-0-5--5--5-5-5-5-3--3--3-3-3-3-2--2--2-2-2-2-|
Db|-0--0--0-0-0-0-5--5--5-5-5-5-3--3--3-3-3-3-2--2--2-2-2-2-|

Gtr 2:
Eb|---------------------------------------------------------|
Bb|-8~8~8~8~8~8~8~8~8~8~8~8~8~8~8~8~8~8~8~8~8~8~8~8~8~8~8~8-|
Gb|---------------------------------------------------------|
Db|---------------------------------------------------------|
Ab|---------------------------------------------------------|
Db|---------------------------------------------------------|

They its all about to end
They say 
They say


[Verse 2] (x4)

Eb|---------------------------------------------------------|
Bb|---------------------------------------------------------|
Gb|---------------------------------------------------------|
Db|---------------------------------------------------------|
Ab|-0--0--0-0-0-0-5--5--5-5-5-5-3--3--3-3-3-3-2--2--2-2-2-2-|
Db|-0--0--0-0-0-0-5--5--5-5-5-5-3--3--3-3-3-3-2--2--2-2-2-2-|

Theres a prison thats gone but the fear lives on 
i watch you walking on the dotted line                    .........
maybe you dont say whats infront of me 
maybe you wont stand the test of time

for we live in sin for we will win and watch the president kiss his family
for we live in sin for we will win and watch the president fuck society


[Pre-Chorus] (x2)
    
Eb|---------------------------------------------------------|
Bb|---------------------------------------------------------|
Gb|---------------------------------------------------------|
Db|---------------------------------------------------------|
Ab|-3--3--3-3-3-3-3--3--3-3-3-3-7--7--7-7-7-7-7--7--7-7-7-7-|
Db|-3--3--3-3-3-3-3--3--3-3-3-3-7--7--7-7-7-7-7--7--7-7-7-7-|

If you were me could you defend thier giving rise to all of them.
Lets fuck the world with all its strength they say its all about to end!


[Chorus]

Gtr 1:
Eb|---------------------------------------------------------|
Bb|---------------------------------------------------------|
Gb|---------------------------------------------------------|
Db|---------------------------------------------------------|
Ab|-0--0--0-0-0-0-5--5--5-5-5-5-3--3--3-3-3-3-2--2--2-2-2-2-|
Db|-0--0--0-0-0-0-5--5--5-5-5-5-3--3--3-3-3-3-2--2--2-2-2-2-|

Gtr 2:
Eb|---------------------------------------------------------|
Bb|-8~8~8~8~8~8~8~8~8~8~8~8~8~8~8~8~8~8~8~8~8~8~8~8~8~8~8~8-|
Gb|---------------------------------------------------------|
Db|---------------------------------------------------------|
Ab|---------------------------------------------------------|
Db|---------------------------------------------------------|

They its all about to end
They say 
They say


[Pre-Chorus] (x2)

Eb|---------------------------------------------------------|
Bb|---------------------------------------------------------|
Gb|---------------------------------------------------------|
Db|---------------------------------------------------------|
Ab|-3--3--3-3-3-3-3--3--3-3-3-3-7--7--7-7-7-7-7--7--7-7-7-7-|
Db|-3--3--3-3-3-3-3--3--3-3-3-3-7--7--7-7-7-7-7--7--7-7-7-7-|

I fall in love with old times i never mentioned my own mind
lets fuck the world with all its strenght thank god its all about to end


[Chorus]

Gtr 1:
Eb|---------------------------------------------------------|
Bb|---------------------------------------------------------|
Gb|---------------------------------------------------------|
Db|---------------------------------------------------------|
Ab|-0--0--0-0-0-0-5--5--5-5-5-5-3--3--3-3-3-3-2--2--2-2-2-2-|
Db|-0--0--0-0-0-0-5--5--5-5-5-5-3--3--3-3-3-3-2--2--2-2-2-2-|

Gtr 2:
Eb|---------------------------------------------------------|
Bb|-8~8~8~8~8~8~8~8~8~8~8~8~8~8~8~8~8~8~8~8~8~8~8~8~8~8~8~8-|
Gb|---------------------------------------------------------|
Db|---------------------------------------------------------|
Ab|---------------------------------------------------------|
Db|---------------------------------------------------------|

They its all about to end
They say 
They say!

They its all about to end
They say 
They say!


************************************

| b  Bend
| ~  Vibrato

************************************

            
            
Suggest correction
Creating personal tab
Creating personal tab
You can edit any tab online and save it as your Personal.

You can edit, replace or remove any tab part or add personal notes – all changes will be seen only by you.

Personal tabs can be accessed anytime from any device, even offline.
Learn more »
comments
print report bad tab
12 comments total. Showing first comments.
+1 reply
blacksurgeband 72 Apr 02, 2008 10:10 AM

The g string part was way off.

-1 reply
human panda 10 Apr 13, 2008 04:52 PM

Theres only one guitar in it

+2 reply
Kaladere 31 Apr 20, 2008 06:58 PM

Actually there is two guitars in it if you listen to when the lyrics are "They say it's all about to end... They say, they say..." theirs the Solo going on over top the Rythem

guest
You may want to rate the tab now too:
select rating
Wanna post a correction for this tab? Suggest correction