Oops, an error
Loading. Please wait.

Drowning tab

version 1
version 1

Whole song

Interactive

2,806 views 1 this week
no commentswrite comment
1 2 3 4 5
1 last vote to show rating
add to favorites
×
Save as Personal and add changes to this tab that will be seen only by you. Learn more ›
×
You can save this tab as Personal to edit and correct it or add notes. All changes will be seen only by you. Learn more »
launch autoscroll
font size
0
reset
how to read this tab
guitar tuner
edit
Autoscroll
slow
fast
+/-
esc
set tempo
stop
Author
Difficulty
Tabbed by: Joshua Garcia (joshuag523@aol.com)

Tabs For the song: Drowning by Scary Kids Scaring Kids
Please rate and let me know if you have any corrections. Thank you.


*Updated on 01/29/2014 - Revisited and updated entire tab. Should be as accurate as can be.


Tuning: Standard (E A D G B E)


Intro
Guitar 1:
E||-------0------0-------------0------0-------------0------0------|
B||-----8------8-------------8------8-------------8------8--------|
G||--11-----11-----11-----11-----11-----11-----11-----11-----11---|
D||---------------------------------------------------------------|
A||---------------------------------------------------------------|
E||---------------------------------------------------------------|


Guitar 2:
E||---------------------------------------------------------------|
B||--12------------12-----12------------12-----12------------12---|
G||-------9h12---9-------------9h12---9-------------9h12---9------|
D||-----9------9-------------9------9-------------9------9--------|
A||---------------------------------------------------------------|
E||---------------------------------------------------------------|



Verse
Guitar 1:
E||-------------------------------------------------------------------------------------|
B||------------------------------------------------------------------------------0-0-0--|
G||------------------------------------------------------------------------------0-0-0--|
D||--5-5-55----5-5-55----5-5-55----5-5-55----2-2-22----2-2-22----4-4-44----4-4-4-4-4-4--|
A||--7-7-77----7-7-77----7-7-77----7-7-77----3-3-33----3-3-33----5-5-55----6-6-6--------|
E||--0-0-00----0-0-00----0-0-00----0-0-00----3-3-33----3-3-33----5-5-55----5-5-5--------|


E||-------------------------------------------------------------------------------------|
B||------------------------------------------------------------------------------0~-0~--|
G||------------------------------------------------------------------------------0~-0~--|
D||--5-5-55----5-5-55----5-5-55----5-5-55----2-2-22----2-2-22----4-4-44----4-4-4-4~-4~--|
A||--7-7-77----7-7-77----7-7-77----7-7-77----3-3-33----3-3-33----5-5-55----6-6-6--------|
E||--0-0-00----0-0-00----0-0-00----0-0-00----3-3-33----3-3-33----5-5-55----5-5-5--------|


Guitar 2:
E||------7---5--------------7---5--------------7---5--------------7---5------|
B||--3/5---5---8-7-8----3/5---5---8-7-8----3/5---5---8-7-8----3/5---5---8-7--|
G||--------------------------------------------------------------------------|
D||--------------------------------------------------------------------------|
A||--------------------------------------------------------------------------|
E||--------------------------------------------------------------------------|
           .                  .                  .                  .


E||------7---5--------------7---5--------------7---5--------------7---5~------|
B||--3/5---5---8-7-8----3/5---5---8-7-8----3/5---5---8-7-8----3/5---5-----7~--|
G||---------------------------------------------------------------------------|
D||---------------------------------------------------------------------------| x2
A||---------------------------------------------------------------------------|
E||---------------------------------------------------------------------------|
           .                  .                  .                  .


Guitar 2 (Dub):
E||------7---5-7-5-7--------7---5-7-5-7--------7---5-7-5-7--------7---5-7-5--|
B||--3/5---5------------3/5---5------------3/5---5------------3/5---5--------|
G||--------------------------------------------------------------------------|
D||--------------------------------------------------------------------------|
A||--------------------------------------------------------------------------|
E||--------------------------------------------------------------------------|
           .                  .                  .                  .


E||------7---5-7-5-7--------7---5-7-5-7--------7---5-7-5-7--------7---5~------|
B||--3/5---5------------3/5---5------------3/5---5------------3/5---5-----7~--|
G||---------------------------------------------------------------------------|
D||---------------------------------------------------------------------------| x2
A||---------------------------------------------------------------------------|
E||---------------------------------------------------------------------------|
           .                  .                  .                  .



Pre-Chorus
Guitar 1:
E||--5h7-----------------------------|
B||------0-7/8-0-5-------------------|
G||----------------7-7/9-------------|
D||----------------------9-7-9-7-----|
A||------------------------------9---|
E||----------------------------------|


Guitar 2:
E||--2h3-----------------------------|
B||------0-3/5-0---------------------|
G||--------------4-2-2/4-------------|
D||----------------------5-4-5-4-----|
A||------------------------------5---|
E||----------------------------------|



Chorus
Guitar 1/2:
E||-------------------------------------|
B||--8888888888888888-7777777777777777--|
G||--0000000000000000-0000000000000000--|
D||--xxxxxxxxxxxxxxxx-xxxxxxxxxxxxxxxx--|
A||--7777777777777777-5555555555555555--|
E||-------------------------------------|


E||-----------------------------------------------|
B||-----------------------------------------------|
G||----------0-0-0----------0-0-0----------0-0-0--|
D||----------2-2-2----------2-2-2----------4-4-4--|
A||--333333333-3-3--333333333-3-3--555555555-5-5--|
E||-----------------------------------------------|
     ........       ........       ........



Pre-Verse
Guitar 1:
E||--5h7-------------|
B||------0-7/8-0-----|
G||--------------7---|
D||------------------|
A||------------------|
E||------------------|


Guitar 2:
E||--2h3-------------|
B||------0-3/5-0-----|
G||--------------2---|
D||------------------|
A||------------------|
E||------------------|



Verse
Guitar 1:
E||-------------------------------------------------------------------------------------|
B||------------------------------------------------------------------------------0-0-0--|
G||------------------------------------------------------------------------------0-0-0--|
D||--5-5-55----5-5-55----5-5-55----5-5-55----2-2-22----2-2-22----4-4-44----4-4-4-4-4-4--|
A||--7-7-77----7-7-77----7-7-77----7-7-77----3-3-33----3-3-33----5-5-55----6-6-6--------|
E||--0-0-00----0-0-00----0-0-00----0-0-00----3-3-33----3-3-33----5-5-55----5-5-5--------|


E||-------------------------------------------------------------------------------------|
B||------------------------------------------------------------------------------0~-0~--|
G||------------------------------------------------------------------------------0~-0~--|
D||--5-5-55----5-5-55----5-5-55----5-5-55----2-2-22----2-2-22----4-4-44----4-4-4-4~-4~--|
A||--7-7-77----7-7-77----7-7-77----7-7-77----3-3-33----3-3-33----5-5-55----6-6-6--------|
E||--0-0-00----0-0-00----0-0-00----0-0-00----3-3-33----3-3-33----5-5-55----5-5-5--------|


Guitar 2:
E||------7---5--------------7---5--------------7---5--------------7---5------|
B||--3/5---5---8-7-8----3/5---5---8-7-8----3/5---5---8-7-8----3/5---5---8-7--|
G||--------------------------------------------------------------------------|
D||--------------------------------------------------------------------------|
A||--------------------------------------------------------------------------|
E||--------------------------------------------------------------------------|
           .                  .                  .                  .


E||------7---5--------------7---5--------------7---5--------------7---5~------|
B||--3/5---5---8-7-8----3/5---5---8-7-8----3/5---5---8-7-8----3/5---5-----7~--|
G||---------------------------------------------------------------------------|
D||---------------------------------------------------------------------------| x2
A||---------------------------------------------------------------------------|
E||---------------------------------------------------------------------------|
           .                  .                  .                  .


Guitar 2 (Dub):
E||------7---5-7-5-7--------7---5-7-5-7--------7---5-7-5-7--------7---5-7-5--|
B||--3/5---5------------3/5---5------------3/5---5------------3/5---5--------|
G||--------------------------------------------------------------------------|
D||--------------------------------------------------------------------------|
A||--------------------------------------------------------------------------|
E||--------------------------------------------------------------------------|
           .                  .                  .                  .


E||------7---5-7-5-7--------7---5-7-5-7--------7---5-7-5-7--------7---5~------|
B||--3/5---5------------3/5---5------------3/5---5------------3/5---5-----7~--|
G||---------------------------------------------------------------------------|
D||---------------------------------------------------------------------------| x2
A||---------------------------------------------------------------------------|
E||---------------------------------------------------------------------------|
           .                  .                  .                  .



Pre-Chorus
Guitar 1:
E||--5h7-----------------------------|
B||------0-7/8-0-5-------------------|
G||----------------7-7/9-------------|
D||----------------------9-7-9-7-----|
A||------------------------------9---|
E||----------------------------------|


Guitar 2:
E||--2h3-----------------------------|
B||------0-3/5-0---------------------|
G||--------------4-2-2/4-------------|
D||----------------------5-4-5-4-----|
A||------------------------------5---|
E||----------------------------------|



Chorus
Guitar 1/2:
E||-------------------------------------|
B||--8888888888888888-7777777777777777--|
G||--0000000000000000-0000000000000000--|
D||--xxxxxxxxxxxxxxxx-xxxxxxxxxxxxxxxx--|
A||--7777777777777777-5555555555555555--|
E||-------------------------------------|


E||-----------------------------------------------|
B||-----------------------------------------------|
G||----------0-0-0----------0-0-0----------0-0-0--|
D||----------2-2-2----------2-2-2----------4-4-4--|
A||--333333333-3-3--333333333-3-3--555555555-5-5--|
E||-----------------------------------------------|
     ........       ........       ........

E||-------------------------------------|
B||--8888888888888888-7777777777777777--|
G||--0000000000000000-0000000000000000--|
D||--xxxxxxxxxxxxxxxx-xxxxxxxxxxxxxxxx--|
A||--7777777777777777-5555555555555555--|
E||-------------------------------------|


E||----------------------------------------------------------|
B||----------------------------------------------------------|
G||----------0-0-0----------0-0-0----------0-0-0-0-0-00-0-0--|
D||----------2-2-2----------2-2-2----------4-4-4-4-4-44-4-4--|
A||--333333333-3-3--333333333-3-3--555555555-5-5-6-6-66-6-6--|
E||----------------------------------------------------------|
     ........       ........       ........



Bridge
Guitar 1:
E||--------10--12----14h15------------------|
B||--10/12-----------------------10h12------|
G||------------------------11h12------------|
D||------------------------------------12---|
A||-----------------------------------------|
E||-----------------------------------------|



Chorus
Guitar 1/2:
E||-------------------------------------|
B||--8888888888888888-7777777777777777--|
G||--0000000000000000-0000000000000000--|
D||--xxxxxxxxxxxxxxxx-xxxxxxxxxxxxxxxx--|
A||--7777777777777777-5555555555555555--|
E||-------------------------------------|


E||-----------------------------------------------|
B||-----------------------------------------------|
G||----------0-0-0----------0-0-0----------0-0-0--|
D||----------2-2-2----------2-2-2----------4-4-4--|
A||--333333333-3-3--333333333-3-3--555555555-5-5--|
E||-----------------------------------------------|
     ........       ........       ........

E||-------------------------------------|
B||--8888888888888888-7777777777777777--|
G||--0000000000000000-0000000000000000--|
D||--xxxxxxxxxxxxxxxx-xxxxxxxxxxxxxxxx--|
A||--7777777777777777-5555555555555555--|
E||-------------------------------------|


E||--------------------------------------------------------------|
B||--------------------------------------------------------------|
G||----------0-0-0----------0-0-0----------0-0-0----------0-0-0--|
D||----------2-2-2----------2-2-2----------4-4-4----------4-4-4--|
A||--333333333-3-3--333333333-3-3--555555555-5-5--555555555-5-5--|
E||--------------------------------------------------------------|
     ........       ........       ........       ........


E||--------------------------------------------------|
B||--------------------------------------------------|
G||----------0-0-0----------0-0-0----------0-0-0--0--|
D||----------2-2-2----------2-2-2----------4-4-4--4--|
A||--333333333-3-3--333333333-3-3--555555555-5-5--6--|
E||--------------------------------------------------|
     ........       ........       ........



Outro
Guitar 1:
E||------------------------------------------------|
B||------------------------------------------------|
G||------------------------------------------------|
D||--5-5-55----5-5-55----5-5-55--------5--5--5-5~--|
A||--7-7-77----7-7-77----7-7-77--------7--7--7-7~--|
E||--0-0-00----0-0-00----0-0-00-000000-0-00-00-0~--|
                                ......   .  .

Guitar 2:
E||--0-0-00----0-0-00----0-0-00--------0--0--0-0~--|
B||--8-8-88----8-8-88----8-8-88-888888-8-88-88-8~--|
G||------------------------------------------------|
D||------------------------------------------------|
A||------------------------------------------------|
E||------------------------------------------------|
                                ......   .  .



Tablature Legend
----------------
 h   hammer-on
 p   pull-off
 b   bend
 pb  pre-bend
 r   release bend
 ~   hold / vibrato
 .   palm mute
 /   slide up
 \   slide down
 *   pinch harmonic
 '   natural harmonic
 x   mute note
 T   tap

            
            
Suggest correction
Creating personal tab
Creating personal tab
You can edit any tab online and save it as your Personal.

You can edit, replace or remove any tab part or add personal notes – all changes will be seen only by you.

Personal tabs can be accessed anytime from any device, even offline.
Learn more »
Give kudos to tab author, rate the tab!
1 2 3 4 5
comments
print report bad tab
guest
You may want to rate the tab now too:
select rating
Wanna post a correction for this tab? Suggest correction