Oops, an error
Loading. Please wait.

Goodbye Thimble Mill Lane bass

by Schadel
46 views 1 this week
no commentswrite comment
1 2 3 4 5
3 more votes to show rating
add to favorites
×
Save as Personal and add changes to this tab that will be seen only by you. Learn more ›
×
You can save this tab as Personal to edit and correct it or add notes. All changes will be seen only by you. Learn more »
launch autoscroll
font size
0
reset
guitar tuner
edit
Autoscroll
slow
fast
+/-
esc
set tempo
stop
Author
Difficulty
Tabbed by: 6METAL6BASSIST6
E-mail: petergriffinav@gmail.com

Tuning: EADG

Re-tabbed.

G|------------------------------------------------------------------------------------------------|
D|------------------------------------------------------------------------------------------------|
A|--------2---2---3---5-----------2---2---3---5-----------2---2---3---5-----------------------2---|
E|3-----------------------3-----------------------3-----------------------3-------3---3---5-------|

0:10

G|------------------------------------------------------------------------------------------------|
D|--------------------------------------------4---5-------5-------5-------------------5---4---2---|
A|3-------3-------3-------5-------5-------5-------------------5-------5---7-------7---------------|
E|------------3-------3---------------5-----------------------------------------------------------|

G|------------------------------------------------------------------------------------------------|
D|--------------------------------------------4---5-------5-------5-------------------------------|
A|3-------3-------3-------5-------5-------5-------------------5-------5---7-------7-------7---5---|
E|------------3-------3---------------5-----------------------------------------------7-----------|

0:24

G|------------------------------------------------------------------------------------------------|
D|--------------------------------------------4---5-------5-------5-------------------5---4---2---|
A|3-------3-------3-------5-------5-------5-------------------5-------5---7-------7---------------|
E|------------3-------3---------------5-----------------------------------------------------------|

G|------------------------------------------------------------------------------------------------|
D|----------------2---------------2-----------2---------------4---7---4-------4---7-------4---7---|
A|0-------0---3-------3---0---3-------0---3-------5-------5---------------5-----------5-----------|
E|------------------------------------------------------------------------------------------------|

0:39

G|------------------------------------------------------------------------------------------------|
D|4-----------2-------------------------------------------------------5---------------------------|
A|------------------------5---4---2-----------7---------------------------5-------5-------7---4---|
E|------------------------------------5-----------5-------5---3-----------------------5-----------|

G|------------------------------------------------------------------------------------|
D|4-------4---2-------2-----------------------------------------------5---------------|
A|------------------------5---4---2-----------7---------------------------5-------5---|
E|------------------------------------5-----------5-------5---3-----------------------|

G|------------------------------------------------|
D|------------------------------------------------|
A|------------------------------------------------|
E|5-------5---5---5---5---5---5---5---5---5---5---|

0:57

G|------------------------------------------------------------------------------------------------|
D|--------------------------------------------4---5-------5-------5-------------------5---4---2---|
A|3-------3-------3-------5-------5-------5-------------------5-------5---7-------7---------------|
E|------------3-------3---------------5-----------------------------------------------------------|

G|------------------------------------------------------------------------------------------------|
D|--------------------------------------------4---5-------5-------5-------------------------------|
A|3-------3-------3-------5-------5-------5-------------------5-------5---7-------7-------7---5---|
E|------------3-------3---------------5-----------------------------------------------7-----------|

1:14

G|------------------------------------------------------------------------------------------------|
D|--------------------------------------------4---5-------5-------5-------------------5---4---2---|
A|3-------3-------3-------5-------5-------5-------------------5-------5---7-------7---------------|
E|------------3-------3---------------5-----------------------------------------------------------|

G|------------------------------------------------------------------------------------------------|
D|----------------2---------------2-----------2---------------4---7---4-------4---7-------4---7---|
A|0-------0---3-------3---0---3-------0---3-------5-------5---------------5-----------5-----------|
E|------------------------------------------------------------------------------------------------|

1:29

G|------------------------------------------------------------------------------------------------|
D|4-----------2-------------------------------------------------------5---------------------------|
A|------------------------5---4---2-----------7---------------------------5-------5-------7---4---|
E|------------------------------------5-----------5-------5---3-----------------------5-----------|

G|------------------------------------------------------------------------------------|
D|4-------4---2-------2-----------------------------------------------5---------------|
A|------------------------5---4---2-----------7---------------------------5-------5---|
E|------------------------------------5-----------5-------5---3-----------------------|

G|------------------------------------------------|
D|------------------------------------------------|
A|------------------------------------------------|
E|5-------5---5---5---5---5---5---5---5---5---5---|

1:49

G|----------------------------------------------------------------4-----------------------4-------|
D|4---------------4-------------------------------------------4-------4---------------4-----------|
A|------------4-----------4---------------4-------2-----------------------2-------------------2---|
E|------------------------------------4-----------------------------------------------------------|

G|------------------------------------------------------------------------------------------------|
D|4---------------4-----------------------------------4---7-------4---7---------------------------|
A|------------4-----------4---------------4-------5-----------5---------------4---5---7-------7-\-|
E|------------------------------------4-----------------------------------5---------------7-------|

2:03

G|------------------------------------------------------------------------------------------------|
D|--------------------------------------------4---5-------5-------5-------------------5---4---2---|
A|3-------3-------3-------5-------5-------5-------------------5-------5---7-------7---------------|
E|------------3-------3---------------5-----------------------------------------------------------|

G|------------------------------------------------------------------------------------------------|
D|--------------------------------------------4---5-------5-------5-------------------------------|
A|3-------3-------3-------5-------5-------5-------------------5-------5---7-------7-------7---5---|
E|------------3-------3---------------5-----------------------------------------------7-----------|

2:19

G|------------------------------------------------------------------------------------------------|
D|--------------------------------------------4---5-------5-------5-------------------5---4---2---|
A|3-------3-------3-------5-------5-------5-------------------5-------5---7-------7---------------|
E|------------3-------3---------------5-----------------------------------------------------------|

G|------------------------------------------------------------------------------------------------|
D|----------------2---------------2-----------2---------------4---7---4-------4---7-------4---7---|
A|0-------0---3-------3---0---3-------0---3-------5-------5---------------5-----------5-----------|
E|------------------------------------------------------------------------------------------------|

2:35 Until fadeout.

G|------------------------------------------------------------------------------------------------|
D|4-----------2-------------------------------------------------------5---------------------------|
A|------------------------5---4---2-----------7---------------------------5-------5-------7---4---|
E|------------------------------------5-----------5-------5---3-----------------------5-----------|

G|------------------------------------------------------------------------------------|
D|4-------4---2-------2-----------------------------------------------5---------------|
A|------------------------5---4---2-----------7---------------------------5-------5---|
E|------------------------------------5-----------5-------5---3-----------------------|

G|------------------------------------------------|
D|------------------------------------------------|
A|------------------------------------------------|
E|5---5---5---5---5---5---5---5---5---5---5---5---|

            
            
Suggest correction
Creating personal tab
Creating personal tab
You can edit any tab online and save it as your Personal.

You can edit, replace or remove any tab part or add personal notes – all changes will be seen only by you.

Personal tabs can be accessed anytime from any device, even offline.
Learn more »
Give kudos to tab author, rate the tab!
1 2 3 4 5
comments
print report bad tab
guest
You may want to rate the tab now too:
select rating
Wanna post a correction for this tab? Suggest correction