Oops, an error
Loading. Please wait.

Loving You Sunday Morning bass

version 1
version 1

Whole song

Interactive

877 views 6 this week
no commentswrite comment
1 2 3 4 5
x 4
add to favorites
×
Save as Personal and add changes to this tab that will be seen only by you. Learn more ›
×
You can save this tab as Personal to edit and correct it or add notes. All changes will be seen only by you. Learn more »
launch autoscroll
font size
0
reset
guitar tuner
edit
Autoscroll
slow
fast
+/-
esc
set tempo
stop
Author
Band: Scorpions 
Song: Loving You Sunday Morning 
Album: Lovedrive (1979) 
Bassist: Francis Buchholz 

Standard Tuning (E A D G)

Intro (0.09)
G ----------------------------------------| 
D ----------------------------------------| 
A -------------------3--------------------| 
E --12\55555555555555-55555555555555345---|

G ----------------------------------------| 
D ----------------------------------------| 
A -------------------3--------------------| 
E --12\55555555555555-55555555555555555---|

Break 

Verse
G ----------------------------------------| --|
D ----------------------------------------|   |
A -------------------3--------------------|   |
E --12\55555555555555-55555555555555345---|   |
                                              | X2
G ----------------------------------------|   |
D ----------------------------------------|   |
A ----------------------------------------|   |
E --5555555555555534555555555555555555----| --|


Refrain
G ------------------------------------| --|
D ------------------------------------|   |
A --3-33-33---------3-33-33-----------|   |
E ----------0-1-2-3---------0-1-2-3---|   |
                                          | X2
G ------------------------------------|   |
D ------------------------------------|   |  
A ----------------3-------------------|   |
E --55555555555555-55555555555555555--| --|

Then

G -------------| 
D -------------| 
A --2~~--------|
E -------------|

Intro

Verse

Refrain

Bridge
G -----------------------------------------| 
D -----------------------------------------| 
A ---------222222-----22222222-----222222--| 
E --12\5-1--------5-1----------5-1---------|

Solo
G -------------------| 
D --2-0--------------| 
A -----320-0-03-0-0--| 
E -------------------|

G -----------------| 
D -----------------| 
A --5320-0-03-0-0--|  x4
E -----------------|

G -----------------| 
D -----------------| 
A --5320-----------|  
E -----------------|

Bridge

Verse

Refrain

Bridge

Solo to the end

            
            
Suggest correction
Creating personal tab
Creating personal tab
You can edit any tab online and save it as your Personal.

You can edit, replace or remove any tab part or add personal notes – all changes will be seen only by you.

Personal tabs can be accessed anytime from any device, even offline.
Learn more »
comments
print report bad tab
guest
You may want to rate the tab now too:
select rating
Wanna post a correction for this tab? Suggest correction