Oops, an error
Loading. Please wait.

Make It Real bass

version 3
version 3

Whole song

Interactive

291 views 1 this week
no commentswrite comment
1 2 3 4 5
1 last vote to show rating
add to favorites
×
Save as Personal and add changes to this tab that will be seen only by you. Learn more ›
×
You can save this tab as Personal to edit and correct it or add notes. All changes will be seen only by you. Learn more »
launch autoscroll
font size
0
reset
guitar tuner
backing track
0:00
0:00
edit
Autoscroll
slow
fast
+/-
esc
set tempo
stop
Author
Difficulty
-------------------------------------------------------------------------------
                             MAKE IT REAL - Scorpions
-------------------------------------------------------------------------------
Tabbed by: ddeloach

Tuning: EADG Standard



Intro
                   3x
G |-----------------| ----------------|
D |*---------------*| ----------------|
A |*-535-0533-0303-*| --535-053~------|
E |-----------------| ----------------|

Verse 1
                                       2x
G |------------------|------------------|
D |*-----------------|-----------------*|
A |*-5--51--1----3-3-|-5--51--1--------*|
E |----------1--1----|---------1--13-3--|

G |-----------------|-------------------|
D |-----------3-----|-------------------|
A |-5--51--1----3-3-|-5--51--1----------|
E |---------1-------|---------1--13-3---|

G |-------------------|---------------------------|
D |-----------3-------|---------------------------|
A |-5--51--1----3-3-5-|-51--1-------------[12]\-5-|
E |---------1---------|------1--13131313----------|

Chorus
                   3x
G |-----------------|----------------|
D |*---------------*|----------------|
A |*-535-0533-0303-*|--535-053~------|
E |-----------------|----------------|


Verse 2
                                     2x
G |--------------------|---------------|
D |*-------------------|--------------*|
A |*-5--51--1----3-3-5-|-51--1--------*|
E |----------1--1------|------1--13-3--|


G |-------------------|----------------|
D |-------------------|----------------|
A |-5--51--1----3-3-5-|-51--1----------|
E |---------1--1------|------1--1313---|


G |-------------------|-----------------------------|
D |-----------3-------|-----------------------------|
A |-5--51--1----3-3-5-|-51--1---------------[12]\-5-|
E |---------1---------|------1--1313--1313----------|


Chorus
                   3x
G |-----------------| ----------------|
D |*---------------*| ----------------|
A |*-535-0533-0303-*| --535-053~------|
E |-----------------| ----------------|



Bridge

G |----------------|--------------------|
D |----------------|--------------------|
A |-5---5-3-5-3----|-5-x3-5-x3-5-x3-1~--|
E |------------1-0-|--------------------|



G |------------------|--------------------|
D |------------------|--------------------|
A |-5-x3-5---5-x3----|-5-x3-5-x3-5-x3-1~--|
E |--------------1-0-|--------------------|


G |-------------------|--------------------|
D |-------------------|--------------------|
A |-5-x3-5-x3-5-x3----|-5-x3-5-x3-5-x3-1~--|   
E |---------------1-0-|--------------------|                    


G |------------------|---------------------|
D |------------------|---------------------|
A |-5--5-x3-5-x3-----|-5-x3-5-x3-5-x3-1~---|
E |-------------1-0--|---------------------|


Verse 3
G |----------------------------------------|
D |- Rest * 4 -----------------------------|
A |----------------------------------------|
E |----------------------------------------|


G |-------------------|------------------|
D |-----------3-------|------------------|
A |-5--51--1----3-3-5-|-51--1------------|
E |---------1---------|------1--1313-----|


G |-------------------|-----------------------------|
D |-----------3-------|-----------------------------|
A |-5--51--1----3-3-5-|-51--1---------------[12]\-5-|
E |---------1---------|------1---313--1313----------|


Chorus/End
                   8x
G |-----------------|------------|
D |*---------------*|------------|
A |*-535-0533-0303-*|-3-3-3-3-5--|
E |-----------------|------------|


Tab explanations
-----------------------------------------------------
| /  slide up
| \  slide down
| ~  vibrato
| x  Mute note
| [12] - twelfth fret
===============================================================================

            
            
Suggest correction
Creating personal tab
Creating personal tab
You can edit any tab online and save it as your Personal.

You can edit, replace or remove any tab part or add personal notes – all changes will be seen only by you.

Personal tabs can be accessed anytime from any device, even offline.
Learn more »
Give kudos to tab author, rate the tab!
1 2 3 4 5
comments
print report bad tab
guest
You may want to rate the tab now too:
select rating
Wanna post a correction for this tab? Suggest correction