Oops, an error
Loading. Please wait.
We have an official No One Like You tab made by UG professional guitarists. Check out the tab »
×
33,639 views 36 this week
1 commentread comment
1 2 3 4 5
2 more votes to show rating
add to favorites
×
Save as Personal and add changes to this tab that will be seen only by you. Learn more ›
×
You can save this tab as Personal to edit and correct it or add notes. All changes will be seen only by you. Learn more »
launch autoscroll
font size
0
reset
how to read this tab
guitar tuner
backing track
0:00
0:00
edit
Autoscroll
slow
fast
+/-
esc
set tempo
stop
Author
Difficulty
Composer (s): Klaus Meine / Rudolf Schenker

Guitar 1 -> Standard (E,B,G,D,A,E)
Guitar 2 -> Standard (E,B,G,D,A,E)

Legenda:
.  - palm mute           /  - slide up to
\  - slide down to       ~  - vibrato
h  - hammer on           b  - Bend
p  - pull off            Suffixes for bend
t  - tap                 f  - full bend
ph - pinched harmonic    q  - quarter bend t - tap bend
*  - see comment         ^  - Hold bend    r release bend
x  - Stuccatto           ~  - vibrato bend
,  - slight palm mute    () - ghost note, sustained note
"  - tremolo note        <> - harmonic
pb - pre bend            hb - half bend

INTRO 1 ->
Guitar 1 -> Distortion (Solo)
Guitar 2 -> Overdrive  (Base)


Guitar 1:
--------15b-(15)---------------------------------------------------------------15-------|
-----------------------------------------------------------12---12b--------15b---(15)b~-|
---------------14--16--16b-r-14/12--14p12--------------14-----------14--12--------------|
--------------------------------------------14~~~~~-------------------------------------|
----------------------------------------------------------------------------------------|
----------------------------------------------------------------------------------------|

Guitar 2:
---------------x-x-------x-x---------------------------x--x----x--x--------x---x--------|
---------------1-1-------3-3---------2--2--------------1--1----3--3--------2---2--------|
-2--2----------2-2-------4-4---------2--2--------------2--2----4--4--------2---2--------|
-2--2----------3-3-------5-5---------2--2--------------3--3----5--5--------2---2--------|
-0--0----------3-3-------5-5---------0--0--------------3--3----5--5--------0---0--------|
---------------1-1-------3-3---------------------------1--1----3--3---------------------|

Guitar 1:
---------------17---------20---20b~~~---17---20---19p17---19p17--------17---------------|
------17--20b------20p17------------------------------------------20-------20b~~~~~-----|
-/17-----------------------------------------------------------------------------19b----|
----------------------------------------------------------------------------------------|
----------------------------------------------------------------------------------------|
----------------------------------------------------------------------------------------|

Guitar 2:
-x-x-------x-x--------------------------x-----------------------------------------------|
-1-1-------3-3--------------------------1-----------------------------------------------|
-2-2-------4-4--------------------------2---------------------------------------1-------|
-3-3-------5-5--------------------------3---------------------------------------2-------|
-3-3-------5-5--------------------------3---------------------------------------2-------|
-1-1-------3-3--------------------------1---------------------------------------0-------|

Guitar 1:
----------------------------------------------------------------------------------------|
----------------------------------------------------------------------------------------|
-(19)-(19)-17------19b--(19)/-----------------------------------------------------------|
---------------19-----------------------------------------------------------------------|
----------------------------------------------------------------------------------------|
----------------------------------------------------------------------------------------|

Guitar 2:
----------------------------------------------------------------------------------------|
----------------------------------------------------------------------------------------|
-1--------------------------------------------------------------------------------------|
-2-------------------------2------------------------------------------------------------|
-2--------------------------------------------------------------------------------------|
-0----------------0---3b-------3b---0---------------------------------------------------|

INTRO 2 ->
Guitar 1 -> Distortion Solo + Harmonizer
Guitar 2 -> Overdrive (Base)


Guitar 1:
------15b-----------------------------------------------------------------15-----------|
----------------------------------------------------------------------15b----(15)~~~~--|
----------14--16--16b-r-14/16--14p12--------------14-16-16br-14s12---------------------|
--------------------------------------14~~~~~------------------------------------------|
---------------------------------------------------------------------------------------|
---------------------------------------------------------------------------------------|

Guitar 2:
---------------x-x-------x-x---------------------------x--x----x--x--------x---x--------|
---------------1-1-------3-3---------2--2--------------1--1----3--3--------2---2--------|
-2--2----------2-2-------4-4---------2--2--------------2--2----4--4--------2---2--------|
-2--2----------3-3-------5-5---------2--2--------------3--3----5--5--------2---2--------|
-0--0----------3-3-------5-5---------0--0--------------3--3----5--5--------0---0--------|
---------------1-1-------3-3---------------------------1--1----3--3---------------------|

Guitar 1:
---------------17---------20b---20~~~---17---20p19p17---19p17------17-------------------|
------17--20b------20p17---------------------------------------20b------20p17------17---|
-/17---------------------------------------------------------------------------19-------|
----------------------------------------------------------------------------------------|
----------------------------------------------------------------------------------------|
----------------------------------------------------------------------------------------|

Guitar 2:
-x-x-------x-x--------------------------x-----------------------------------------------|
-1-1-------3-3--------------------------1-----------------------------------------------|
-2-2-------4-4--------------------------2------------------------------------1----------|
-3-3-------5-5--------------------------3------------------------------------2----------|
-3-3-------5-5--------------------------3------------------------------------2----------|
-1-1-------3-3--------------------------1------------------------------------0----------|

Guitar 1:
--17------------------------------------------------------------------------------------|
------20--19p17-------------------------------------17~~~~~~----------------------------|
------------------19b-r--(19)p17------19-----17-----------------------------------------|
----------------------------------------------------------------------------------------|
----------------------------------------------------------------------------------------|
----------------------------------------------------------------------------------------|

Guitar 2:
---------------------------------------------------------------------------------------|
---------------------------------------------------------------------------------------|
---------------------------------------------------------------------------------------|
---------------------------------------------------------------------------------------|
---------------------------------------------------------------------------------------|
---------------------------------------------------------------------------------------|

VERSE 1 ->
Guitar 1 -> Overdrive (Base)
Guitar 2 -> Clean


Guitar 2:
Girl, Its been a long time that we've been apart, much too long for a man who needs love.
-----------0-------------------------------------------------------0-----------------------1-------|
--------------1---------------1----------------------------------------1---------------------------|
--------2--------2--------2-----------------------------------2------------2-----------2-----------|
-----2-------------0---3----------3----2---0---------------2------------------0----3---------------|
--0---------------------------------------------3-------0------------------------------------------|
---------------------------------------------------------------------------------------------------|

Guitar 1:
---------------------------------------------------------------------------------------------------|
---------------------------------------------------------------------------------------------------|
---------------------------------------------------------------------------------------------------|
---------------------------------------------------------------------------------------------------|
---------------------------------------------------------------------------------------------------|
---------------------------------------------------------------------------------------------------|

Guitar 2:
I   miss   you since I've been away...
-----------0--------------------------------------------------------0---------------0-----------0--|
--------------1---------------1----------------------------------------1-----------------3---------|
--------2--------2--------2------------------------------------0----------0-----------4-----4------|
-----2-------------0---3--------3----2---0---------------2------------------2----------------------|
--0---------------------------------------------2--3-----------------------------------------------|
---------------------------------------------------------------------------------------------------|

Guitar 1:
---------------------------------------------------------------------------------------------------|
---------------------------------------------------------------------------------------------------|
---------------------------------------------------------------------------------------------------|
--------------------------------------------------------------------------------------------2-0----|
------------------------------------------------------------------------------------------2-----2/-|
--------------------------------------------------------------------------------------0-4----------|

Guitar 2:
Babe, it wasn't easy to leave you alone, It's getting harder each time that I go
-----------0--------------------1----------------------------------0---------------------1---------|
--------------1--------------1----------------------------------------1----------------1-----------|
--------2--------2--------2-----------------------------------2------------2---------2-------------|
-----2-------------0---3---------------2---0---------------2------------------0----3-------2--0----|
--0---------------------------------------------3-------0---------------------------------------3--|
---------------------------------------------------------------------------------------------------|

Guitar 1:
---------------------------------------------------------------------------------------------------|
---------------------------------------------------------------------------------------------------|
---------------------------------------------------------------------------------------------------|
---------------------------------------------------------------------------------------------------|
----------------------2----3---5-----------------------------------------------------3-----2-------|
--5--3--5----5--3--1----------------------------------5--3--5----5--3--1---------------------------|

Guitar 2:
If I had the choice, I would stay
-----------0----------------------------------------------------0-------0----------------------0---|
--------------1---------------1------------------------1---------------------0----3------3----(3)--|
--------2--------2--------2--------------------------------0-------------------------1--------(1)--|
-----2-------------0---3--------3----2---0-------------------------2--------------------------(2)--|
--0---------------------------------------------2--3-----------------------------------------------|
---------------------------------------------------------------------------------------------------|

Guitar 1:
---------------------------------------------------------------------------------------------------|
---------------------------------------------------------------------------------------------------|
----------------------------------------------------------5--------9------------7---------9----9-9-|
---------------------------------------------------------5--5----9---9--------7---7-------9----9-9-|
----------------------2----3---5-----------------------3-------7------------5-------------7----7-7-|
--5--3--5----5--3--1-------------------------------------------------------------------------------|

CHORUS 1 ->
Guitar 1 -> Distortion (Solo)
Guitar 2 -> Overdrive  (Base)


There's no one like you
I can't wait for the nights with you
I imagine the things we'll do
I just want to be loved for you

Guitar 2:
-----------------------------------------------------------------------------------------|
-----------------------------------------------------------------------------------------|
---2--2---------------------2--2--------------------2--2---------------------------------|
---2--2-----3--3----5--5----2--2----3--3----5--5----2--2---3--3---5--5---3------2--------|
---0--0-----3--3----5--5----0--0----3--3----5--5----0--0---3--3---5--5---3------2--------|
------------1--1----3--3------------1--1----3--3-----------1--1---3--3---1------0--------|

Guitar 1:
-----------------------------------------------------------------------------------------|
-----------------------------------------------------------------------------------------|
-------------------------------------------------------------------------7b-(7)-(7)-5-7b-|
-----------------------------------------------------------------------------------------|
-----------------------------------------------------------------------------------------|
-----------------------------------------------------------------------------------------|

No one like you
I can't wait for the nights with you
I imagine the things we'll do
I just wanna be loved by you

Guitar 2:
---------------------------------------------------------------------------------------|
---------------------------------------------------------------------------------------|
---2--2---------------------2--2--------------------2--2------------------------1------|
---2--2-----3--3----5--5----2--2----3--3----5--5----2--2---3--3---5--5---3------2------|
---0--0-----3--3----5--5----0--0----3--3----5--5----0--0---3--3---5--5---3------2------|
------------1--1----3--3------------1--1----3--3-----------1--1---3--3---1------0------|


Guitar 1:
-----------------------------------------------------------------------------------------|
-----------------------------------------------------------------------------------------|
-----------------------------------------------------------------------------------------|
-----------------------------------------------------------------------------------------|
-----------------------------------------------------------------------------------------|
-----------------------------------------------------------------------------------------|

VERSE 1 ->
Guitar 1 -> Overdrive (Base)
Guitar 2 -> Clean


Girl, there are really no words strong enough
To describe all my longing for love

Guitar 2:
-----------0-------------------------------------------------------0-----------------------1-------|
--------------1---------------1----------------------------------------1---------------------------|
--------2--------2--------2-----------------------------------2------------2-----------2-----------|
-----2-------------0---3----------3----2---0---------------2------------------0----3---------------|
--0---------------------------------------------3-------0------------------------------------------|
---------------------------------------------------------------------------------------------------|

Guitar 1:
---------------------------------------------------------------------------------------------------|
---------------------------------------------------------------------------------------------------|
---------------------------------------------------------------------------------------------------|
---------------------------------------------------------------------------------------------------|
---------------------------------------------------------------------------------------------------|
---------------------------------------------------------------------------------------------------|

I don't want my feelings restrained

Guitar 2:
-----------0--------------------------------------------------------0---------------0-----------0--|
--------------1---------------1----------------------------------------1-----------------3---------|
--------2--------2--------2------------------------------------0----------0-----------4-----4------|
-----2-------------0---3--------3----2---0---------------2------------------2----------------------|
--0---------------------------------------------2--3-----------------------------------------------|
---------------------------------------------------------------------------------------------------|

Guitar 1:
---------------------------------------------------------------------------------------------------|
---------------------------------------------------------------------------------------------------|
---------------------------------------------------------------------------------------------------|
--------------------------------------------------------------------------------------------2-0----|
------------------------------------------------------------------------------------------2-----2/-|
--------------------------------------------------------------------------------------0-4----------|

Ooh, babe, I just need you like never before
Just imagine you'd come through this door
You'd take all my sorrow away

Guitar 2:
-----------0--------------------1----------------------------------0---------------------1---------|
--------------1--------------1----------------------------------------1----------------1-----------|
--------2--------2--------2-----------------------------------2------------2---------2-------------|
-----2-------------0---3---------------2---0---------------2------------------0----3-------2--0----|
--0---------------------------------------------3-------0---------------------------------------3--|
---------------------------------------------------------------------------------------------------|

Guitar 1:
---------------------------------------------------------------------------------------------------|
---------------------------------------------------------------------------------------------------|
---------------------------------------------------------------------------------------------------|
---------------------------------------------------------------------------------------------------|
----------------------2----3---5-----------------------------------------------------3-----2-------|
--5--3--5----5--3--1----------------------------------5--3--5----5--3--1---------------------------|

You'd take all my sorrow away

Guitar 2:
-----------0----------------------------------------------------0-------0----------------------0---|
--------------1---------------1------------------------1---------------------0----3------3----(3)--|
--------2--------2--------2--------------------------------0-------------------------1--------(1)--|
-----2-------------0---3--------3----2---0-------------------------2--------------------------(2)--|
--0---------------------------------------------2--3-----------------------------------------------|
---------------------------------------------------------------------------------------------------|

Guitar 1:
---------------------------------------------------------------------------------------------------|
---------------------------------------------------------------------------------------------------|
----------------------------------------------------------5--------9------------7---------9----9-9-|
---------------------------------------------------------5--5----9---9--------7---7-------9----9-9-|
----------------------2----3---5-----------------------3-------7------------5-------------7----7-7-|
--5--3--5----5--3--1-------------------------------------------------------------------------------|

CHORUS 2 ->
Guitar 1 -> Distortion (Solo)
Guitar 2 -> Overdrive  (Base)


There's no one like you
I can't wait for the nights with you
I imagine the things we'll do
I just wanna be loved by you

Guitar 2:
-----------------------------------------------------------------------------------------|
-----------------------------------------------------------------------------------------|
---2--2---------------------2--2--------------------2--2---------------------------------|
---2--2-----3--3----5--5----2--2----3--3----5--5----2--2---3--3---5--5---3------2--------|
---0--0-----3--3----5--5----0--0----3--3----5--5----0--0---3--3---5--5---3------2--------|
------------1--1----3--3------------1--1----3--3-----------1--1---3--3---1------0--------|

Guitar 1:
-----------------------------------------------------------------------------------------|
-----------------------------------------------------------------------------------------|
-------------------------------------------------------------------------7b-(7)-(7)-5-7b-|
-----------------------------------------------------------------------------------------|
-----------------------------------------------------------------------------------------|
-----------------------------------------------------------------------------------------|

No one like you
I can't wait for the nights with you
I imagine the things we'll do
I just wanna be loved by you

Guitar 2:
---------------------------------------------------------------------------------------|
---------------------------------------------------------------------------------------|
---2--2---------------------2--2--------------------2--2-------------------------------|
---2--2-----3--3----5--5----2--2----3--3----5--5----2--2---3--3---5--5---3------2------|
---0--0-----3--3----5--5----0--0----3--3----5--5----0--0---3--3---5--5---3------2------|
------------1--1----3--3------------1--1----3--3-----------1--1---3--3---1------0------|

Guitar 1:
-----------------------------10-----15b~~~ \-------------------------------------------|
-----5------------------12b-------------------------------------8fb~~~~~~~-------------|
-5-7-----------------------------------------------------------------------------------|
-------7-7------\----------------------------------------------------------------------|
-----------------------------------------------------0---------------------------------|
--------------------------------------------------1-----3------------------------------|


SOLO ->
Guitar 1 -> Distortion (solo)
Guitar 2 -> Distortion (solo)


Guitar 1:
--------------------------------------------------------------------------------------------|
-------------------------------(semi harmonic)------------------------------------8b~~~~~~~-|
---7(b-hold)------7-7-7-7-7-7-7-7-7-7-7-7(r)----(7b1/2) (7r) p5 -7--5-----------------------|
--------------------------------------------------------------------------------------------|
--------------------------------------------------------------------------------------------|
--------------------------------------------------------------------------------------------|

Guitar 1:
--------------------------8b~~~~~~~---------------------5---------------|
-10pb---(10)~~(10)p8---8------------------------------5---8p5-----------|
---------------------9---------------------------7b-----------8-7p5-----|
--------------------------------------------------------------------7---|
------------------------------------------------------------------------|
------------------------------------------------------------------------|

Guitar 1:
-------------------------------------------------------------------------|
-------------------------------------------------------------------------|
--7p5--------------------------------------------------------------------|
--------7p5--7---7p5-----------------------------------------------------|
---------------------------7-6-5-3--------3b(slow)-----------------------|
-------------------------------------------------------------------------|

Guitar 2:
---15fb----------\----------------------19fb---------\--|
-------------------------13-----------------------------|
-------------------14-16----16-14-12-14-----------------|
--------------------------------------------------------|
--------------------------------------------------------|
--------------------------------------------------------|

Guitar 1:
---18fb-----------\17-19-20-19-17-15-17-22fb---------\--|
--------------------------------------------------------|
--------------------------------------------------------|
--------------------------------------------------------|
--------------------------------------------------------|
--------------------------------------------------------|

Guitar 1:
--------17----17----17----17----17----17-20b-17----17-20b-17----17-|
-----20b---20b---20b---20b---20b---20b----------20b----------20b---|
-/19---------------------------------------------------------------|
-------------------------------------------------------------------|
-------------------------------------------------------------------|
-------------------------------------------------------------------|

Guitar 1:
----1717-1616-15--------15----------15----------15-----------------|
-20b--------------15-17----17-15-17----17-15-17----17-15-17-20b----|
-------------------------------------------------------------------|
-------------------------------------------------------------------|
-------------------------------------------------------------------|
-------------------------------------------------------------------|

Guitar 1:
-----17-------------------------------------------|
-20fb---20-17-16-17-16-15-------------------------|
--------------------------14-13-------------------|
--------------------------------14-12--10----12-\-|
--------------------------------------------------|
--------------------------------------------------|

CHORUS 3 ->
Guitar 1 -> Distortion (Solo)
Guitar 2 -> Overdrive  (Base)
(Follow the rhythm of the chorus in the final solo, separated only to facilitate you to 
the time)


No one like you

There's no one like you
I can't wait for the nights with you
I imagine the things we'll do
I just wanna be loved by you

Guitar 2:
-----------------------------------------------------------------------------------------|
-----------------------------------------------------------------------------------------|
---2--2---------------------2--2--------------------2--2---------------------------------|
---2--2-----3--3----5--5----2--2----3--3----5--5----2--2---3--3---5--5---3------2--------|
---0--0-----3--3----5--5----0--0----3--3----5--5----0--0---3--3---5--5---3------2--------|
------------1--1----3--3------------1--1----3--3-----------1--1---3--3---1------0--------|


Guitar 1:
-----------------------------------------------------------------------------------------|
-----------------------------------------------------------------------------------------|
-------------------------------------------------------------------------7b-(7)-(7)-5-7b-|
-----------------------------------------------------------------------------------------|
-----------------------------------------------------------------------------------------|
-----------------------------------------------------------------------------------------|

Guitar 2:
-------------------------------------------------------------|
-------------------------------------------------------------|
---2--2------------------------------------------------------|
---2--2---------------------3--3---------------------5--5----|
---0--0---------------------3--3---------------------5--5----|
----------------------------1--1---------------------3--3----|


Guitar 1:
-15b------------------------15/-17---19--19b-19-(19)---17/15-|
-------------------------------------------------------------|
-------------------------------------------------------------|
-------------------------------------------------------------|
-------------------------------------------------------------|
-------------------------------------------------------------|

Guitar 2:
-------------------------------------------------------------|
-------------------------------------------------------------|
---2--2------------------------------------------------------|
---2--2---------------------3--3---------------------5--5----|
---0--0---------------------3--3---------------------5--5----|
----------------------------1--1---------------------3--3----|

Guitar 1:
-17--22b--(22)/--------------17---19--19b-(19)----17/15------|
-------------------------------------------------------------|
-------------------------------------------------------------|
-------------------------------------------------------------|
-------------------------------------------------------------|
-------------------------------------------------------------|

Guitar 2:
-------------------------------------------------------------|
-------------------------------------------------------------|
---2--2------------------------------------------------------|
---2--2---------------------3--3---------------------5--5----|
---0--0---------------------3--3---------------------5--5----|
----------------------------1--1---------------------3--3----|

Guitar 1:
-17-(17)-15~~~~~~-------------17-------20^-------20~~~~~~----|
---------------17------------------20------------------------|
-------------------------------------------------------------|
-------------------------------------------------------------|
-------------------------------------------------------------|
-------------------------------------------------------------|

Guitar 2:
-------------------------------------------------------------|
-------------------------------------------------------------|
-------------------------------------------------------------|
--3-----------------------2----------------------------------|
--3-----------------------2----------------------------------|
--1-----------------------0----------------------------------|

Guitar 1:
-17-20-19p17-19p17----17------17-----------------------------|
-------------------20----20fb----20p17------17h20p17---------|
---------------------------------------19fb------------------|
-------------------------------------------------------------|
-------------------------------------------------------------|
-------------------------------------------------------------|

theangel-1992@hotmail.com

            
            
Suggest correction
Creating personal tab
Creating personal tab
You can edit any tab online and save it as your Personal.

You can edit, replace or remove any tab part or add personal notes – all changes will be seen only by you.

Personal tabs can be accessed anytime from any device, even offline.
Learn more »
Give kudos to tab author, rate the tab!
1 2 3 4 5
comments
print report bad tab
1 comment total.
0 reply
ritchie.77 245 Feb 11, 2014 04:46 AM

Scorpions - No one like you (intro + solo)
http://www.youtube.com/watch?v=YBmENP2DxLM

guest
You may want to rate the tab now too:
select rating
Wanna post a correction for this tab? Suggest correction