Oops, an error
Loading. Please wait.
We have an official Still Loving You tab made by UG professional guitarists. Check out the tab »
×

Still Loving You tab

21,289 views 54 this week
2 commentsread comments
1 2 3 4 5
x 12
add to favorites
×
Save as Personal and add changes to this tab that will be seen only by you. Learn more ›
×
You can save this tab as Personal to edit and correct it or add notes. All changes will be seen only by you. Learn more »
launch autoscroll
font size
0
reset
how to read this tab
guitar tuner
backing track
0:00
0:00
edit
Autoscroll
slow
fast
+/-
esc
set tempo
stop
My first tab, sorry for any mistake you may find.

Br means: Bend and release.

[Rudolf Guitar]

INTRO

eb|---6--------6--------6------9-8-6-------6---------7----------------------|
Bb|-----8--------8--------8----------8-------8---------5--------------------|
Gb|-------7--------7--------7------------------7---------7------------------|
Db|-0-----------------------------------------------------------------------|
Ab|----------8--------6------------------8-------6-5------------------------|
Eb|-------------------------------------------------------------------------|

(Matthias doesn't play in the first intro)...

INTRO 2


eb|---6--------6--------6------9-8-6-------6-------------5------------------|
Bb|-----8--------8--------8----------8-------8----------7-------------------|
Gb|-------7--------7--------7------------------7-------5--------------------|
Db|-0------------------------------------------------7----------------------|
Ab|----------8--------6------------------8-------6-5------------------------|
Eb|-------------------------------------------------------------------------|

Verse 1
Time.. it needs  time....


|---6-----6-----6--|---6-----6-----6-|---6-----6-----6-|---6-----6------6---|
|-----8-----8------|-----7-----7-----|-----7-----7-----|-----7-----7--------|
|-------7-----7----|-------8-----8---|-------8-----8---|-------8-----8------|
|-0----------------|-0---------------|-0---------------|-0------------------|
|------------------|-----------------|-----------------|--------------------|
|------------------|-----------------|-----------------|--------------------|


I will be there...                     I will be there...


|---9-----9-----9--|----9-----9----9-|---3-----3-----3-|---3-----3-----3----|
|-----8-----8------|------8-----8----|-----2-----2-----|-----2-----2--------|
|-9-----9-----9----|--------9-----9--|-------3-----3---|-------3-----3------|
|------------------|-11--------------|-0---------------|-0------------------|
|------------------|-----------------|-----------------|--------------------|
|------------------|-----------------|-----------------|--------------------|


Love, only love...


|---6-----6-----6--|---6-----6-----6-|---6-----6-----6-|---6-----6------6---|
|-----8-----8------|-----7-----7-----|-----7-----7-----|-----7-----7--------|
|-------7-----7----|-------8-----8---|-------8-----8---|-------8-----8------|
|-0----------------|-0---------------|-0---------------|-0------------------|
|------------------|-----------------|-----------------|--------------------|
|------------------|-----------------|-----------------|--------------------|


I will be there...                     I will be there...


|---9-----9-----9--|----9-----9----9-|---3-----3-----3-|---3-----3-----3----|
|-----8-----8------|------8-----8----|-----2-----2-----|-----2-----2--------|
|-9-----9-----9----|--------9-----9--|-------3-----3---|-------3-----3------|
|------------------|-11--------------|-0---------------|-0------------------|
|------------------|-----------------|-----------------|--------------------|
|------------------|-----------------|-----------------|--------------------|

(While Matthias plays the solo, Rudolf stars with intro 2 times)


Verse 2
Fight, baby I'll fight...


|---6-----6-----6--|---6-----6-----6-|---6-----6-----6-|---6-----6------6---|
|-----8-----8------|-----7-----7-----|-----7-----7-----|-----7-----7--------|
|-------7-----7----|-------8-----8---|-------8-----8---|-------8-----8------|
|-0----------------|-0---------------|-0---------------|-0------------------|
|------------------|-----------------|-----------------|--------------------|
|------------------|-----------------|-----------------|--------------------|


I will be there...                     I will be there...


|---9-----9-----9--|----9-----9----9-|---2-----2-----2-|---2-----2-----2----|
|-----8-----8------|------8-----8----|-----3-----3-----|-----3-----3--------|
|-9-----9-----9----|--------9-----9--|-------2-----2---|-------2-----2------|
|------------------|-11--------------|-0---------------|-0------------------|
|------------------|-----------------|-----------------|--------------------|
|------------------|-----------------|-----------------|--------------------|

Love, only love...


|---6-----6-----6--|---6-----6-----6-|---6-----6-----6-|---6-----6------6---|
|-----8-----8------|-----7-----7-----|-----7-----7-----|-----7-----7--------|
|-------7-----7----|-------8-----8---|-------8-----8---|-------8-----8------|
|-0----------------|-0---------------|-0---------------|-0------------------|
|------------------|-----------------|-----------------|--------------------|
|------------------|-----------------|-----------------|--------------------|


I will be there...                     I will be there...


|---9-----9-----9--|----9-----9----9-|---2-----2-----2-|---2-----2-----2----|
|-----8-----8------|------8-----8----|-----3-----3-----|-----3-----3--------|
|-9-----9-----9----|--------9-----9--|-------2-----2---|-------2-----2------|
|------------------|-11--------------|-0---------------|-0------------------|
|------------------|-----------------|-----------------|--------------------|
|------------------|-----------------|-----------------|--------------------|

If we go again | go again    |all the way | from the start |


|--------------|-------------|------------|----------------|
|--------------|-------------|------------|-10-------------|
|--------------|-8-----------|------------|-10-------------|
|-5------------|-8-----------|-8----------|-10-------------|
|-5------------|-6-----------|-8----------|-8--------------|
|-3------------|-------------|-6----------|----------------|


     i'd       | try ....    | things t...|   our love     |

|--------------|-------------|------------|----------------|
|--------------|-------------|------------|-10-------------|
|--------------|-8-----------|------------|-10-------------|
|-5------------|-8-----------|-8----------|-10-------------|
|-5------------|-6-----------|-8----------|-8--------------|
|-3------------|-------------|-6----------|----------------|

 your pride has| built a wall| so strong  | get | through   |

|--------------|-------------|------------|-----|-----------|
|--------------|-------------|------------|-----|-----------|
|--------------|-5-----------|-7----------|-5---|-----------|
|-5------------|-5-----------|-7----------|-5---|--5--------|
|-5------------|-3-----------|-5----------|-3---|--5--------|
|-3------------|-------------|------------|-----|--3--------|

is there are . | to start    |  once again   | i'm ..|

|--------------|-------------|---------------|-------|
|--------------|-------------|-10------------|-8-----|
|-8------------|-8--8--------|-10------------|-8-----|
|-8------------|-8--8--------|-10------------|-8-----|
|-6------------|-6--6--------|-8-------------|-6-----|
|--------------|-------------|---------------|-------|


(The same as the fist solo)

Try.. baby try....


|---6-----6-----6--|---6-----6-----6-|---6-----6-----6-|---6-----6------6---|
|-----8-----8------|-----7-----7-----|-----7-----7-----|-----7-----7--------|
|-------7-----7----|-------8-----8---|-------8-----8---|-------8-----8------|
|-0----------------|-0---------------|-0---------------|-0------------------|
|------------------|-----------------|-----------------|--------------------|
|------------------|-----------------|-----------------|--------------------|


I will be there...                     I will be there...


|---9-----9-----9--|----9-----9----9-|---2-----2-----2-|---2-----2-----2----|
|-----8-----8------|------8-----8----|-----3-----3-----|-----3-----3--------|
|-9-----9-----9----|--------9-----9--|-------2-----2---|-------2-----2------|
|------------------|-11--------------|-0---------------|-0------------------|
|------------------|-----------------|-----------------|--------------------|
|------------------|-----------------|-----------------|--------------------|


Love, our love....


|---6-----6-----6--|---6-----6-----6-|---6-----6-----6-|---6-----6------6---|
|-----8-----8------|-----7-----7-----|-----7-----7-----|-----7-----7--------|
|-------7-----7----|-------8-----8---|-------8-----8---|-------8-----8------|
|-0----------------|-0---------------|-0---------------|-0------------------|
|------------------|-----------------|-----------------|--------------------|
|------------------|-----------------|-----------------|--------------------|


I will be there...                     I will be there...


|---9-----9-----9--|----9-----9----9-|---2-----2-----2-|---2-----2-----2----|
|-----8-----8------|------8-----8----|-----3-----3-----|-----3-----3--------|
|-9-----9-----9----|--------9-----9--|-------2-----2---|-------2-----2------|
|------------------|-11--------------|-0---------------|-0------------------|
|------------------|-----------------|-----------------|--------------------|
|------------------|-----------------|-----------------|--------------------|


CHORUS 2

If we go again | go again    |all the way | from the start |


|--------------|-------------|------------|----------------|
|--------------|-------------|------------|-10-------------|
|--------------|-8-----------|------------|-10-------------|
|-5------------|-8-----------|-8----------|-10-------------|
|-5------------|-6-----------|-8----------|-8--------------|
|-3------------|-------------|-6----------|----------------|


     i'd       | try ....    | things t...|   our love     |

|--------------|-------------|------------|----------------|
|--------------|-------------|------------|-10-------------|
|--------------|-8-----------|------------|-10-------------|
|-5------------|-8-----------|-8----------|-10-------------|
|-5------------|-6-----------|-8----------|-8--------------|
|-3------------|-------------|-6----------|----------------|

 your pride has| built a wall| so strong  | get | through   |

|--------------|-------------|------------|-----|-----------|
|--------------|-------------|------------|-----|-----------|
|--------------|-5-----------|-7----------|-5---|-----------|
|-5------------|-5-----------|-7----------|-5---|--5--------|
|-5------------|-3-----------|-5----------|-3---|--5--------|
|-3------------|-------------|------------|-----|--3--------|

is there are . | to start    |  once again   |

|--------------|-------------|---------------|
|--------------|-------------|-10------------|
|-8------------|-8--8--------|-10------------|
|-8------------|-8--8--------|-10------------|
|-6------------|-6--6--------|-8-------------|
|--------------|-------------|---------------|


CHORUS 3

If we go again | go again    |all the way|from ...|

|--------------|-------------|-----------|------- |--------------------|
|--------------|-------------|-----------|-10-----|--------------------|
|--------------|-8-----------|-----------|-10-----|----------------3---|
|-5------------|-8-----------|-8---------|-10-----|--------------3---5-|
|-5------------|-6-----------|-8---------|-8------|-----1-3/5----------|
|-3------------|-------------|-6---------|--------|--1-3---------------|


     i'd       | try ....    | things that killed  our love |

|--------------|-------------|------------------------------|
|--------------|-------------|------------------------------|
|--------------|-------------|----17b-(17)/15--12-----------|
|-5------------|-------------|------------------------------|
|--------------|-------------|------------------------------|
|--------------|-------------|------------------------------|

.......your pride...........| a chance, this can't be the end.

\------------20br20p18-20b--|---------------------------------|
\---------------------------|---------------------------------|
\---------------------------|-------------------3--5br3--5br--|
\---------------------------|--------------3--5---------------|
\---------------------------|------1--3/5---------------------|
\---------------------------|-1--3----------------------------|


OUTRO

|------------------------------------|----17-18-20-20b-20b-20-18-20------|
|-18b---18br---15------15--18--------|-20--------------------------------|
|-----------------17----------17br---|-----------------------------------|
|------------------------------------|-----------------------------------|
|------------------------------------|-----------------------------------|
|------------------------------------|-----------------------------------|


|-15--------------------------------20br18-20b-20-20---|
|---------------16br----20-18-20-----------------------|
|--------14-15-----------------------------------------|
|---17-------------------------------------------------|
|------------------------------------------------------|
|------------------------------------------------------|

|-15-17-18-17------17----------|
|--------------18------18b-----|
|------------------------------|
|------------------------------|
|------------------------------|
|------------------------------|

-----15-17-18-17----17--------/
-15--------------18----18-15--/
------------------------------/
------------------------------/
------------------------------/
------------------------------/

\------------------------------------------------------------|
\-18p15---15--18p15---15--18p15---15--18p15---15--18p15---15-|
\--------17----------17----------17----------17----------17--|
\------------------------------------------------------------|
\------------------------------------------------------------|
\------------------------------------------------------------|

|-------------------|
|-17--17--17--17----|
|-------------------|
|-------------------|
|-------------------|
|-------------------|

---------------------------------------------------------------------------|
-18-15-----18p15---15--18p15---15--18p15---15--18p15---15--18p15---15------|
------17----------17----------17----------17----------17-------------------|
---------------------------------------------------------------------------|
---------------------------------------------------------------------------|
---------------------------------------------------------------------------|


|----------------------------------------------------|
|------15-16--18---15h16p15----15h16-15--------------|
|--17b----------------------17-----------17b---------|
|----------------------------------------------------|
|----------------------------------------------------|
|----------------------------------------------------|

|--------------------------------------------------|
|-18-15-----18p15---15--18p15----15-------18-------|
|------17----------17----------17------17b--17b----|
|--------------------------------------------------|
|--------------------------------------------------|
|--------------------------------------------------|

----------------------------------------------------------|
----------------------------------------------------------|
----------------------------------------------------------|
----------------5-3-0-0-5-3--------------------3-5-------5|
----------------------------5-4-3-------1-1-3-5-----------|
-------------------------------------1/3------------------|


|-15--------------------------------20br18-20b-20-20---|
|---------------16br----20-18-20-----------------------|
|--------14-15-----------------------------------------|
|---17-------------------------------------------------|
|------------------------------------------------------|


|---------------------------------------------------------------------|
|--------------------------------15h16p15-16p15-15h16p15--------------|...till fade
|---17-15-14-12-11-12-12/14-14-12-------------------------------------|
|---------------------------------------------------------------------|
|---------------------------------------------------------------------|

-----------------------------------------------------------------------------

Matthias Guitar

INTRO

-

INTRO 2

eb|----3----------3-------3---------------3-----------2---------------------|
Bb|---3----------3-------3--2-1h2p1--------3-------1------------------------|
Gb|--3----------3-------3-----------3-0-----3--------2----------------------|
Db|-5----------3-------1-----------------1----1--0--------------------------|
Ab|-------------------------------------------------------------------------|
Eb|-------------------------------------------------------------------------|

Verse 1
Time.. it needs  time....

|--------------3-|--------------3-|--------------3-|--------------3-|
|---------3------|---------3------|---------3------|---------3------|
|----3-------3---|----3-------3---|----3-------3---|----3-------3---|
|-5-----5--------|-5-----5--------|-5-----5--------|-5-----5--------|
|----------------|----------------|----------------|----------------|
|----------------|----------------|----------------|----------------|

I will be there...                 I will be there...


|--------------0--|--------------0--|----------------2-|----------------2-|
|---------2-------|---------2-------|----------3-------|----------3-------|
|----2-------2----|----2-------2----|----2--------2----|----2--------2----|
|-------2---------|-------2---------|-0-----0----------|-0-----0----------|
|-0---------------|-0---------------|------------------|------------------|
|-----------------|-----------------|------------------|------------------|


Love, only love...


|--------------3-|--------------3-|--------------3-|--------------3-|
|---------3------|---------3------|---------3------|---------3------|
|----3-------3---|----3-------3---|----3-------3---|----3-------3---|
|-5-----5--------|-5-----5--------|-5-----5--------|-5-----5--------|
|----------------|----------------|----------------|----------------|
|----------------|----------------|----------------|----------------|

I will be there...                     I will be there...


|-------------0--|--------------0--|----------------2-|----------------2-3-2|
|--------2-------|---------2-------|----------3-------|----------3----------|
|---2-------2----|----2-------2----|----2--------2----|----2--------2-------|
|------2---------|-------2---------|-0-----0----------|-0-----0-------------|
|0---------------|-0---------------|------------------|---------------------|
|----------------|-----------------|------------------|---------------------|


SOLO

|---------------------------------------------------|
|---------------------------------------------------|
|------2h3-5---3p2h3-----2---2/3\2-----2-3-5-3-5^---|
|-3/5----------------------5---------5--------------|
|---------------------------------------------------|
|---------------------------------------------------|

|-------------------------------13-13b--------------|
|-------10h11-13--11p10h11----11-------13br11---13^-|
|-10/12---------------------12---------------12-----|
|---------------------------------------------------|
|---------------------------------------------------|
|---------------------------------------------------|

Verse 2
Fight, baby I'll fight...


|--------------3-|--------------3-|--------------3-|--------------3-|
|---------3------|---------3------|---------3------|---------3------|
|----3-------3---|----3-------3---|----3-------3---|----3-------3---|
|-5-----5--------|-5-----5--------|-5-----5--------|-5-----5--------|
|----------------|----------------|----------------|----------------|
|----------------|----------------|----------------|----------------|


I will be there...                     I will be there...


|--------------0--|--------------0--|----------------2-|----------------2-|
|---------2-------|---------2-------|----------3-------|----------3-------|
|----2-------2----|----2-------2----|----2--------2----|----2--------2----|
|-------2---------|-------2---------|-0-----0----------|-0-----0----------|
|-0---------------|-0---------------|------------------|------------------|
|-----------------|-----------------|------------------|------------------|

Love, only love...


|--------------3-|--------------3-|--------------3-|--------------3-|
|---------3------|---------3------|---------3------|---------3------|
|----3-------3---|----3-------3---|----3-------3---|----3-------3---|
|-5-----5--------|-5-----5--------|-5-----5--------|-5-----5--------|
|----------------|----------------|----------------|----------------|
|----------------|----------------|----------------|----------------|


I will be there...                     I will be there...


|-------------0--|--------------0--|----------------2-|----------------2-3-2|
|--------2-------|---------2-------|----------3-------|----------3----------|
|---2-------2----|----2-------2----|----2--------2----|----2--------2-------|
|------2---------|-------2---------|-0-----0----------|-0-----0-------------|
|0---------------|-0---------------|------------------|---------------------|
|----------------|-----------------|------------------|---------------------|

If we go again | go again    |all the way | from the start |


|--------------|-------------|------------|----------------|
|-3------------|-8-----------|-3----------|----------------|
|-3------------|-8-----------|-3----------|-2--------------|
|-5------------|-8-----------|-3----------|-3--------------|
|-5------------|-6-----------|-1----------|-3--------------|
|-3------------|-------------|------------|-1--------------|


     i'd       | try ....    | things t...|   our love     |

|--------------|-------------|------------|----------------|
|-3------------|-8-----------|-3----------|----------------|
|-3------------|-8-----------|-3----------|-2--------------|
|-5------------|-8-----------|-3----------|-3--------------|
|-5------------|-6-----------|-1----------|-3--------------|
|-3------------|-------------|------------|-1--------------|

 your pride has| built a wall| so strong  | get through   |

|--------------|-------------|-2-----------|----------------|
|-3------------|-4-----------|-3-----------|-3--------------|
|-3------------|-5-----------|-2-----------|-3--------------|
|-5------------|-5-----------|-0-----------|-5--------------|
|-5------------|-3-----------|-------------|-5--------------|
|-3------------|-------------|-------------|-3--------------|

is there are really no chance..
|---------------------------------|
|---------------------------------|
|---------------------------------|
|-------------------0-------------|
|-6-5-6-5-6-5-6-5-6----8-7-8-7-8--|
|---------------------------------|

SOLO 2 (Matthias enters when Rudolf repeat intro, not at first)

|-------------------------------13-13^--------------|
|-------10h11-13--11p10h11----11-------13br11---13^-|
|-10/12---------------------12---------------12-----|
|---------------------------------------------------|
|---------------------------------------------------|
|---------------------------------------------------|


to trust in my love again, i'll be there, i'll be there.


|---------------------------2-|
|-------------5br-----------3-|
|-------------5br3----------2-|
|---------3--------5-3-2----0-|
|-----3-5---5-----------------|
|-3/5-------------------------|
|-----------------------------|

love, just shouldn't..., i'll be there, i'll be there.

|---------------------------2-|
|-------------5br-----------3-|
|-------------5br3----------2-|
|---------3--------5-3-2----0-|
|-----3-5---5-----------------|
|-3/5-------------------------|
|-----------------------------|

CHORUS2

If we go again | go again    |all the way | from the start |


|--------------|-------------|------------|----------------|
|-3------------|-8-----------|-3----------|----------------|
|-3------------|-8-----------|-3----------|-2--------------|
|-5------------|-8-----------|-3----------|-3--------------|
|-5------------|-6-----------|-1----------|-3--------------|
|-3------------|-------------|------------|-1--------------|


     i'd       | try ....    | things t...|   our love     |

|--------------|-------------|------------|----------------|
|-3------------|-8-----------|-3----------|----------------|
|-3------------|-8-----------|-3----------|-2--------------|
|-5------------|-8-----------|-3----------|-3--------------|
|-5------------|-6-----------|-1----------|-3--------------|
|-3------------|-------------|------------|-1--------------|

 your pride has| built a wall| so strong  | get through   |

|--------------|-------------|-2-----------|----------------|
|-3------------|-4-----------|-3-----------|-3--------------|
|-3------------|-5-----------|-2-----------|-3--------------|
|-5------------|-5-----------|-0-----------|-5--------------|
|-5------------|-3-----------|-------------|-5--------------|
|-3------------|-------------|-------------|-3--------------|

is there are really no chance..
|---------------------------------|
|---------------------------------|
|---------------------------------|
|-------------------0-------------|
|-6-5-6-5-6-5-6-5-6----8-7-8-7-8--|
|---------------------------------|

cHORUS 3

If we go again | go again    |all the way | from the start |


|--------------|-------------|------------|-----------------|
|-3------------|-8-----------|-3----------|-10--------------|
|-3------------|-8-----------|-3----------|-10--------------|
|-5------------|-8-----------|-3----------|-10--------------|
|-5------------|-6-----------|-1----------|-8---------------|
|-3------------|-------------|------------|-----------------|


     i'd       | try ....    | things t...|   our love     |

|--------------|-------------|------------|----------------|
|-3------------|-8-----------|-3----------|-10-------------|
|-3------------|-8-----------|-3----------|-10-------------|
|-5------------|-8-----------|-3----------|-10-------------|
|-5------------|-6-----------|-1----------|-8--------------|
|-3------------|-------------|------------|----------------|

 |
          yes, i've hurt
|-------------|--------------|
|-------------|--------------|
|-----------5-|--7-5-7-----5-|
|-5-3-5-----5-|--7-5-7-----5-|
|-5-3-5-----3-|------------3-|
|-------------|--------------|

  you should give me a chance  ..
|---------------------------------|
|---------------------------------|
|---------------------------------|
|-------------------0-------------|
|-6-5-6-5-6-5-6-5-6----8-7-8-7-8--|
|---------------------------------|


OUTRO


|--------------|-------------|------------|----------------|
|-3------------|-8-----------|-3----------|-10-------------|
|-3------------|-8-----------|-3----------|-10-------------|
|-5------------|-8-----------|-3----------|-10-------------|
|-5------------|-6-----------|-1----------|-8--------------|
|-3------------|-------------|------------|----------------|


|--------------|-------------|------------|----------------|
|-3------------|-8-----------|-3----------|-10-------------|
|-3------------|-8-----------|-3----------|-10-------------|
|-5------------|-8-----------|-3----------|-10-------------|
|-5------------|-6-----------|-1----------|-8--------------|
|-3------------|-------------|------------|----------------|

|--------------|-------------|------------|----------------|
|-3------------|-8-----------|-3----------|-10-------------|
|-3------------|-8-----------|-3----------|-10-------------|
|-5------------|-8-----------|-3----------|-10-------------|
|-5------------|-6-----------|-1----------|-8--------------|
|-3------------|-------------|------------|----------------|

|--------------|-------------|------------|----------------|
|-3------------|-8-----------|-3----------|-10-------------|
|-3------------|-8-----------|-3----------|-10-------------|
|-5------------|-8-----------|-3----------|-10-------------|
|-5------------|-6-----------|-1----------|-8--------------|
|-3------------|-------------|------------|----------------|

|--------------|-------------|------------|----------------|
|-3------------|-8-----------|-3----------|-10-------------|
|-3------------|-8-----------|-3----------|-10-------------|
|-5------------|-8-----------|-3----------|-10-------------|
|-5------------|-6-----------|-1----------|-8--------------|
|-3------------|-------------|------------|----------------|


|--------------|-------------|------------|----------------|
|-3------------|-8-----------|-3----------|-10-------------|
|-3------------|-8-----------|-3----------|-10-------------|
|-5------------|-8-----------|-3----------|-10-------------|
|-5------------|-6-----------|-1----------|-8--------------|
|-3------------|-------------|------------|----------------|

|--------------|-------------|------------|----------------|
|-3------------|-8-----------|-3----------|-10-------------|
|-3------------|-8-----------|-3----------|-10-------------|
|-5------------|-8-----------|-3----------|-10-------------|
|-5------------|-6-----------|-1----------|-8--------------|
|-3------------|-------------|------------|----------------|

|--------------|-------------|------------|----------------|
|-3------------|-8-----------|-3----------|-10-------------|
|-3------------|-8-----------|-3----------|-10-------------|
|-5------------|-8-----------|-3----------|-10-------------|
|-5------------|-6-----------|-1----------|-8--------------|
|-3------------|-------------|------------|----------------|


I did my best, enjoy. MatthiasJavier

            
            
Suggest correction
Creating personal tab
Creating personal tab
You can edit any tab online and save it as your Personal.

You can edit, replace or remove any tab part or add personal notes – all changes will be seen only by you.

Personal tabs can be accessed anytime from any device, even offline.
Learn more »
comments
print report bad tab
2 comments total.
+1 reply
MatthiasJavier 51 Mar 21, 2013 06:24 PM, edited on March 4 2014, 10:46 pm

It is|---2-----2-----2-|---2-----2-----2----||-----3-----3-----|-----3-----3--------||-------2-----2---|-------2-----2------||-0---------------|-0------------------||-----------------|--------------------||-----------------|--------------------|instead of|---3-----3-----3-|---3-----3-----3----||-----2-----2-----|-----2-----2--------||-------3-----3---|-------3-----3------||-0---------------|-0------------------||-----------------|--------------------||-----------------|--------------------|

0 reply
noelhx 172 Sep 09, 2016 06:45 PM

Why is every tab of this playing the D (or Eb) arpeggio wrong? They all have a chord like G-C#-Bb instead of F#-D-A. Do they all cut and paste from each other? Am I missing something? What is this?

---3-----3-----3-|---3-----3-----3----|
-----2-----2-----|-----2-----2--------|
-------3-----3---|-------3-----3------|
-0---------------|-0------------------|
-----------------|--------------------|
-----------------|--------------------|

Although at least this tab corrects it later on. I thought I was going crazy!

guest
You may want to rate the tab now too:
select rating
Wanna post a correction for this tab? Suggest correction