Oops, an error
Loading. Please wait.

Tease Me Please Me bass

version 1
version 1

Whole song

Interactive

418 views 3 this week
no commentswrite comment
1 2 3 4 5
2 more votes to show rating
add to favorites
×
Save as Personal and add changes to this tab that will be seen only by you. Learn more ›
×
You can save this tab as Personal to edit and correct it or add notes. All changes will be seen only by you. Learn more »
launch autoscroll
font size
0
reset
guitar tuner
edit
Autoscroll
slow
fast
+/-
esc
set tempo
stop
-------------------------------------------------------------------------------
                             Tease Me Please Me - Scorpions
-------------------------------------------------------------------------------
Tabbed by: PunchInTheBass
E-mail: hairymahn@gmail.com

Tuning: Standard

Intro (rest x4 then come in)

G|--------------|--------------|--------------|--------------------|
D|--------------|--------------|--------------|--------------------|
A|--5~--0~------|--5~--0~------|--5~--0~--2~--|--(2)-3-4-5-4-5-6-7-|
E|----------0~--|----------0~--|--------------|--------------------|

G|------------------|------------------|------------------|------------------|
D|------------------|------------------|------------------|------------------|
A|------------------|------------------|------------------|------------------|
E|--0-0-0-0-0-0-0-0-|--0-0-0-0-0-0-0-0-|--0-0-0-0-0-0-0-0-|--0-0-0-0-0-0-0-0-|

G|------------------|------------------|------------------|------------------|
D|------------------|------------------|------------------|------------------|
A|------------------|------------------|------------------|------------------|
E|--0-0-0-0-0-0-0-0-|--0-0-0-0-0-0-0-0-|--0-0-0-0-0-0-0-0-|--0-0-0-0-0-0-0-0-|

Verse x2

G|---------------------------------------------------------------------------|
D|---------------------------------------------------------------------------|
A|--0---0-0-0-0-0-0-|--0-0-0-0-0-0-0-0-|--0-0-0-0-0-0-0-0-|--0-0-0-0-0-0-0-0-|
E|---------------------------------------------------------------------------|

G|------------------|------------------|------------------|------------------|
D|------------------|------------------|------------------|------------------|
A|------------------|------------------|------------------|------------------|
E|--0-0-0-0-0-0-0-0-|--0-0-0-0-0-0-0-0-|--0-0-0-0-0-0-0-0-|--0-0-0-0-0-0-0-0-|

Prechorus
                                    
G|------------------|------------------|------------------|------------------|
D|------------------|------------------|------------------|------------------|
A|--5-5-5-5-5-5-5-0-|--0-0-0-0-0-0-0---|------------------|------------------|
E|------------------|----------------0-|--0-0-0-0-0-0-0-0-|--0-0-0-0-0-0-0-0-|

G|------------------|------------------|------------------|------------------|
D|------------------|------------------|------------------|------------------|
A|--5-5-5-5-5-5-5-0-|--0-0-0-0-0-0-0-2-|--2-2-2-2-2-2-2-2-|--2-3-4-5-4-5-6-7-|
E|------------------|------------------|------------------|------------------|

Chorus

G|------------------|------------------|------------------|------------------|
D|------------------|------------------|------------------|------------------|
A|--7-7-7-5---------|------------------|--7-7-7-5---------|------------------|
E|------------------|--5-5-5-3---------|------------------|--5-5-5-5---3-3---|

G|------------------|------------------|------------------|------------------|
D|------------------|------------------|------------------|------------------|
A|--7-7-7-5---------|------------------|--7-7-7-5-5-5-5-5-|------------------|
E|------------------|--5-5-5-3---------|------------------|--5-5-5-3~--------|

Rest x2 then

G|------------------|---------------|
D|--------0---------|--------0------|
A|----1-2---4-0-----|----1-2---4-0~-|
E|--0-----------3-0-|--0------------|

G|------------------|------------------|------------------|------------------|
D|------------------|------------------|------------------|------------------|
A|------------------|------------------|------------------|------------------|
E|--0-0-0-0-0-0-0-0-|--0-0-0-0-0-0-0-0-|--0-0-0-0-0-0-0-0-|--0-0-0-0-0-0-0-0-|

Verse x2

Prechorus 2 

G|------------------|------------------|------------------|------------------|
D|------------------|------------------|------------------|------------------|
A|--5-5-5-5-5-5-5-0-|--0-0-0-0-0-0-0---|------------------|----5-7-5-7-5-7---|
E|------------------|----------------0-|--0-0-0-0-0-0-0-0-|--0---------------|

G|------------------|------------------|------------------|------------------|
D|------------------|------------------|------------------|------------------|
A|--5-5-5-5-5-5-5-0-|--0-0-0-0-0-0-0-2-|--2-2-2-2-2-2-2-2-|--2-3-4-5-4-5-6-7-|
E|------------------|------------------|------------------|------------------|

Chorus 2

G|------------------|------------------|------------------|------------------|
D|------------------|------------------|------------------|------------------|
A|--7-7-7-5---------|------------------|--7-7-7-5---------|------------------|
E|------------------|--5-5-5-3---------|------------------|--5-5-5-5---3-3---|

G|------------------|------------------|------------------|------------------|
D|------------------|------------------|------------------|------------------|
A|--7-7-7-5---------|------------------|--7-7-7-5---------|------------------|
E|------------------|--5-5-5-3---------|------------------|--5-5-5-5---3-3---|

G|------------------|------------------|------------------|------------------|
D|------------------|------------------|------------------|------------------|
A|--7-7-7-5-5-5-5-5-|------------------|--7-7-7-5-5-5-5-5-|------------------|
E|------------------|--5-5-5-3-3-3-3-3-|------------------|--5-5-5-5-5-3-3-3-|

G|------------------|------------------|------------------|------------------|
D|------------------|------------------|------------------|------------------|
A|--7-7-7-5-5-5-5-5-|------------------|--7-7-7-5-5-5-5-5-|------------------|
E|------------------|--5-5-5-3-3-3-3-3-|------------------|--5-5-5-5-5-3-3-3-|

Solo

G|------------------|------------------|------------------|------------------|
D|------------------|------------------|------------------|------------------|
A|--------5-5-5-5-5-|------------------|--------5-5-5-5-5-|------------------|
E|--0-0-0-----------|--5-5-5-3-3-3-3-3-|--0-0-0-----------|--5-5-5-5-5-3-3-3-|

G|------------------|------------------|------------------|------------------|
D|------------------|------------------|------------------|------------------|
A|--------5-5-5-5-5-|------------------|--------5-5-5-5-5-|------------------|
E|--0-0-0-----------|--5-5-5-3-3-3-3-3-|--0-0-0-----------|--5-5-5-5-5-3-3-3-|

Prechorus 3

G|------------------|------------------|------------------|------------------|
D|------------------|------------------|------------------|------------------|
A|--5-5-5-5-5-5-5-0-|--0-0-0-0-0-0-0---|------------------|--7-7-7-7-7-5-7---|
E|------------------|----------------0-|--0-0-0-0-0-0-0-0-|------------------|

G|------------------|------------------|------------------|------------------|
D|------------------|------------------|------------------|------------------|
A|--5-5-5-5-5-5-5-0-|--0-0-0-0-0-0-0-2-|--2-2-2-2-2-2-2-2-|--2-3-4-5-4-5-6-7-|
E|------------------|------------------|------------------|------------------|

Rest x8

Chorus 3

G|------------------|------------------|------------------|------------------|
D|------------------|------------------|------------------|------------------|
A|--7-7-7-5-5-5-5-5-|------------------|--7-7-7-5-5-5-5-5-|------------------|
E|------------------|--5-5-5-3-3-3-3-3-|------------------|--5-5-5-5-5-3-3-3-|

G|------------------|------------------|------------------|------------------|
D|------------------|------------------|------------------|------------------|
A|--7-7-7-5-5-5-5-5-|------------------|--7-7-7-5-5-5-5-5-|------------------|
E|------------------|--5-5-5-3-3-3-3-3-|------------------|--5-5-5-5-5-3-3-3-|

Repeat until fade:

G|------------------|------------------|------------------|------------------|
D|------------------|------------------|------------------|------------------|
A|------------------|------------------|------------------|------------------|
E|--2-2-2-0-0-0-0-0-|--7-7-7-5-5-5-5-5-|--2-2-2-0-0-0-0-0-|--7-7-7-7-7-5-5-5-|

Hope you enjoy playing this as much as I do!

My first tab, so let me know if you have any questions or corrections. I'm pretty new at this

| /  slide up
| \  slide down
| h  hammer-on
| p  pull-off
| ~  hold note
| +  harmonic
| x  Mute note
===============================================================================

            
            
Suggest correction
Creating personal tab
Creating personal tab
You can edit any tab online and save it as your Personal.

You can edit, replace or remove any tab part or add personal notes – all changes will be seen only by you.

Personal tabs can be accessed anytime from any device, even offline.
Learn more »
Give kudos to tab author, rate the tab!
1 2 3 4 5
comments
print report bad tab
guest
You may want to rate the tab now too:
select rating
Wanna post a correction for this tab? Suggest correction