Oops, an error
Loading. Please wait.

The Entertainer tab

version 3
111,331 views 357 this week
14 commentsread comments
1 2 3 4 5
x 53
add to favorites
×
Save as Personal and add changes to this tab that will be seen only by you. Learn more ›
×
You can save this tab as Personal to edit and correct it or add notes. All changes will be seen only by you. Learn more »
launch autoscroll
font size
0
reset
how to read this tab
guitar tuner
edit
Autoscroll
slow
fast
+/-
esc
set tempo
stop
Author
The Entertainer- Scott Joplin

fixed a couple of mistakes

Tuning: (standard) EADGBE

e|-7-9-5--------------------------------------12-|
B|-------7-9-5--0-2----------------------------9-|
G|------------------2---1----------------------9-|
D|--------------------4---2--------------------9-|
A|---------------------------2-4-0---------------|
E|---------------------------------2-4-2-1-0-----|

e|-------5-----5---5--------5-7-8-9---5-7-9---4-7-5-----|
B|-0-1-2-----2---2--------------------------------------|
G|---------2-----0-----2----6-7-8-9---6-7-9---4-7-6-----|
D|---------2---------0-4--------------------------------|
A|-----0-------0---------0--------0---------------0---0-|
E|----------------------------------------0---------0---|

e|-------5-----5---5-------2-0---2-5-9-7-5---7-----------|
B|-0-1-2-----2---2-------------4-----------7-------0-1-2-|
G|---------2-----0-----2---------------------------------|
D|---------2---------0-4---------------------------------|
A|-----0-------0---------4-3---2-------------7---------0-|
E|-----------------------------------7---------0-2-4-----|

e|5-----5---5-------5-7-8-9---5-7-9---4-7-5------|
B|----2---2--------------------------------------|
G|--2-----0-----2---6-7-8-9---6-7-9---4-7-6------|
D|--2---------0-4--------------------------------|
A|------0---------0-------0---------------0---0--|
E|--------------------------------0---------0----|

e|-5-7-9-5-7-9-5-7-5-9----7-9----7----9-5-7-9---4-7-5-----|
B|---------------------10-----10---10---------------------|
G|-6-7-------0------------------------9-6-7-9---4-7-6-----|
D|--------------------------------------------------------|
A|-----0-------------8------7---------0-------------0-----|
E|------------------------------------------0---------0-2-|

e|-------5-----5---5--------5-7-8-9---5-7-9---4-7-5-----|
B|-0-1-2-----2---2--------------------------------------|
G|---------2-----0-----2----6-7-8-9---6-7-9---4-7-6-----|
D|---------2---------0-4--------------------------------|
A|-----0-------0---------0--------0---------------0---0-|
E|-4--------------------------------------0---------0---|

e|-------5-----5---5-------2-0---2-5-9-7-5---7-----------|
B|-0-1-2-----2-----------------4-----------7-------0-1-2-|
G|---------2-----2-----2---------------------------------|
D|---------2-----0---0-4---------------------------------|
A|-----0-------0---------4-3---2-------------7---------0-|
E|-----------------------------------7---------0-2-4-----|

e|5-----5---5-------5-7-8-9---5-7-9---4-7-5------|
B|----2---2--------------------------------------|
G|--2-----0-----2---6-7-8-9---6-7-9---4-7-6------|
D|--2---------0-4--------------------------------|
A|------0---------0-------0---------------0---0--|
E|--------------------------------0---------0----|

e|-5-7-9-5-7-9-5-7-5-9----7-9----7----9-5-7-9---4-7-5-----|
B|---------------------10-----10---10---------------------|
G|-6-7-------0------------------------9-6-7-9---4-7-6-----|
D|--------------------------------------------------------|
A|-----0-------------8------7---------0-------------0---0-|
E|------------------------------------------0---------0---|

            
            
Suggest correction
Creating personal tab
Creating personal tab
You can edit any tab online and save it as your Personal.

You can edit, replace or remove any tab part or add personal notes – all changes will be seen only by you.

Personal tabs can be accessed anytime from any device, even offline.
Learn more »
comments
print report bad tab
14 comments total. Showing first comments.
0 reply
padgea7x 60 Aug 09, 2009 11:02 AM

I wish I could fingerpick decently then I could try this out!

+2 reply
pault138 63 Jan 28, 2010 06:33 PM

HOW THE HELL?

+3 reply
pault138 63 Jan 29, 2010 06:52 AM

-2-

guest
You may want to rate the tab now too:
select rating
Wanna post a correction for this tab? Suggest correction