Oops, an error
Loading. Please wait.

Missing Cleveland tab

version 2
version 2

Whole song

521 views 1 this week
no commentswrite comment
1 2 3 4 5
x 4
add to favorites
×
Save as Personal and add changes to this tab that will be seen only by you. Learn more ›
×
You can save this tab as Personal to edit and correct it or add notes. All changes will be seen only by you. Learn more »
launch autoscroll
font size
0
reset
how to read this tab
guitar tuner
edit
Autoscroll
slow
fast
+/-
esc
set tempo
stop
Author
Difficulty
Scott Weiland - "Missing Cleveland"
From "Happy in Golashes" EP
Standard Tuning
Tabbed by: jjhand with help from chronic_stp's tab

This is a great Weiland tune, very 70's influenced and nice
guitar layering. Please rate/comment

Intro/Verse, Amp Distortion (think Marshall Plexi)

   C     B+     A    G      F    E+     **
e|------------|-----------|-----------|------------------|
B|------------|-----------|-----------|--------8---------|
G|------------|-----------|-----------|-7-9-10----10-9-7-|
D|-10---------|-7----5----|-3---------|--------5---------|
A|-10----10---|-7----5----|-3----3----|-5-7-8------8-7-5-|
E|-8-----7----|-5----3----|-1----0----|------------------|

** Last bar is 2 guitar tracks




Pre-Chorus (2 Guitars)

       Am                F
e|-----5-------5---|-----1-------1---|
B|-----5-------5---|-----1-------1---| play 2x
G|-----5-------5---|-----2-------2---|
D|-7---7---7---7---|-3---3---3---3---|
A|-7---7---7---7---|-3---3---3---3---|
E|-5---5---5---5---|-1---1---1---1---|

Prechorus ending:

  Guitar 1
e|---------------------|------------------|---------------------|
B|---------------------|------------------|---------------------|
G|---------------------|----------7---7-7-|---------------------|
D|-5---5--5---3---3--3-|-2---2-2--7---7-7-|-5---5-5----3---3--3-|
A|-5---5--3---3---3--3-|-2---2-2--5---5-5-|-5---5-5----3---3--3-|
E|-3---3--3---1---1--1-|-0---0-0----------|-3---3-3----1---1--1-|
 |
 | Guitar 2
e|---------------------|------------------|---------------------|
B|---------------------|------------------|---------------------|
G|-12--12-12-10--10-10-|-9---9-9--7---7-7-|-12--12-12-10--10-10-|
D|-12--12-12-10--10-10-|-9---9-9--7---7-7-|-12--12-12-10--10-10-|
A|-10--10-10--8---8--8-|-7---7-7--5---5-5-|-10--10-10--8---8--8-|
E|---------------------|------------------|---------------------|


   Guitar 1
e|-------------------|
B|-------------------|
G|-------------------|
D|-------------------|
A|-------------------|
E|-0--1--2--3--5--7--|
 |
 | Guitar 2
e|-------------------|
B|-------------10-12-|
G|-9--10-11-12-------|
D|-------------7--9--|
A|-7--8--9--10-------|
E|-------------------|


Chorus-  Guitar 1 in Eighth Note Strum Rhythm

play through 8 bars below 2x
   C
e|--------------------|-------------------|
B|--------------------|-------------------|
G|--------------------|-------------------|
D|-10-----------------|-------------------|
A|--------------------|-------------------|
E|-8------------------|-------------------|
1.       "Your holding on, but letting go"
2.       "Well I'm a dreamer, you don't care"


   B
e|--------------------|-------------------|
B|--------------------|-------------------|
G|--------------------|-------------------|
D|-9------------------|-------------------|
A|--------------------|-------------------|
E|-7------------------|-------------------|
1.      "I'm missing Cleveland and the snow"
2.      "At least it seems so when your there"

   A5
e|--------------------|-------------------|
B|--------------------|-------------------|
G|--------------------|-------------------|
D|-7------------------|-------------------|
A|-7------------------|-------------------|
E|-5------------------|-------------------|
1.         "And lonely bars   where  every-"
2.         "But leaving earth is sometimes"


   F                    ***2nd time only*****
e|-------------------||-------------------|------|
B|-------------------||-------------------|------|
G|-------------------||-7-----------------|------|
D|-3-----------------||-7-----------------|-5----|
A|-3-----------------||-5-----------------|-5----|
E|-1-----------------||-------------------|-3----|
1. "body knows the truth and lets it be"
2. "lonely when your feet are on the ground."




Guitar 2 During Chorus - play 2x, similar rhythm as above

e|---------|-----12---|----------|----------|
B|-13------|----------|-12-------|----------|
G|---------|----------|----------|----12----|
D|---------|----------|----------|----------|
A|---------|----------|----------|----------|
E|---------|----------|----------|----------|

e|---------|----------|----------|--13-12---------|
B|---------|----13----|----------|--------15-13---|
G|-14------|-------10-|-10-------|----------------|
D|---------|----------|----------|----------------|
A|---------|----------|----------|----------------|
E|---------|----------|----------|----------------|





Play Intro/Verse again (2x)

Play Pre-Chorus again, but Guitar 2 ending is this:

e|-10--8--7------------|----|
B|-----------10--8-----|----|
G|------------------10-|-9--|
D|---------------------|----|
A|---------------------|----|
E|---------------------|----|




Play Chorus again

Bridge,

   E5               F5               C5               G5
e|----------------|----------------|----------------|----------------|
B|----------------|----------------|----------------|----------------|
G|----------------|----------------|-5---5---5---5--|----------------|
D|-2---2---2---2--|-3---3---3---3--|-5---5---5---5--|-5---5---5---5--|
A|-2---2---2---2--|-3---3---3---3--|-3---3---3---3--|-5---5---5---5--|
E|-0---0---0---0--|-1---1---1---1--|----------------|-3---3---3---3--|

e|-----------------------------------------------------|
B|-----------------------------------------------------|
G|-----------------------------------------------------|
D|-2---2---2---2---3---3---3---3---12------------------|
A|-2---2---2---2---3---3---3---3---12------------------|
E|-0---0---0---0---1---1---1---1---10------------------|


Bridge ending -

   Guitar 1
e|-------------------------------|---------------------|
B|-----------------------5-6-5---|-8-------------------|
G|-4-4-4-5-7-5-4---7-7-7-------7-|-------7----4----7---|
D|-------------------------------|---------------------|
A|-------------------------------|---------------------|
E|-------------------------------|---------------------|
 |
 | Guitar 2 :
e|-------------------------------|-10--8--7------------|----|
B|-------------------------------|-----------10--8-----|----|
G|---------4-------4-4-4-5-7-5-4-|------------------10-|-9--|
D|-5-5-5-7---7-5-----------------|---------------------|----|
A|-------------------------------|---------------------|----|
E|-------------------------------|---------------------|----|



Play Chorus again 2x, end on C

e|------------|
B|------------|
G|------------|
D|-----10-----|
A|-----10-----|
E|-----8------|

            
            
Suggest correction
Creating personal tab
Creating personal tab
You can edit any tab online and save it as your Personal.

You can edit, replace or remove any tab part or add personal notes – all changes will be seen only by you.

Personal tabs can be accessed anytime from any device, even offline.
Learn more »
comments
print report bad tab
guest
You may want to rate the tab now too:
select rating
Wanna post a correction for this tab? Suggest correction