Oops, an error
Loading. Please wait.

Miss My Lion tab

543 views 1 this week
no commentswrite comment
1 2 3 4 5
3 more votes to show rating
add to favorites
×
Save as Personal and add changes to this tab that will be seen only by you. Learn more ›
×
You can save this tab as Personal to edit and correct it or add notes. All changes will be seen only by you. Learn more »
launch autoscroll
font size
0
reset
how to read this tab
guitar tuner
edit
Autoscroll
slow
fast
+/-
esc
set tempo
stop
Author
Difficulty
-------------------------------------------------------------------------------
                     Miss My Lion by Scout Niblett
-------------------------------------------------------------------------------

From "Sweet Heart Fever" (2001)


Tabbed by: Scott H.

Tuning: EADGBE


Intro:

e|-------------------------------------------------------------------------|
B|--0-0-0-0-0--0-0-0-0--0-0-0-0-0--4--0-0-0-0-0--0-0-0-0--0-0-0-0-0--4-----|
G|--3-3-3-3-3--4-4-4-4--0-0-0-0-0--0--3-3-3-3-3--4-4-4-4--0-0-0-0-0--0-----|
D|--0-0-0-0-0--0-0-0-0--0-0-0-0-0--0--0-0-0-0-0--0-0-0-0--0-0-0-0-0--0-----|
A|-------------------------------------------------------------------------|
E|-------------------------------------------------------------------------|

---0-0-0-0-0--0-0-0-0--0-0-0-0-0--0-0-0-0-0-0-0-0-0-0-0-0-0-0-0-0-0-0-0-0--|
---3-3-3-3-3--4-4-4-4--0-0-0-0-0--4-4-4-4-4-4-4-4-4-4-4-4-4-4-4-4-3-3-3-3--|
---0-0-0-0-0--0-0-0-0--0-0-0-0-0--0-0-0-0-0-0-0-0-0-0-0-0-0-0-0-0-0-0-0-0--|
---------------------------------------------------------------------------|
---------------------------------------------------------------------------|
---------------------------------------------------------------------------|

e|----------------------------------------------------------------------|
B|--3-3-4-0------------0-0-0-0-------------3-3-4-0-----------0-0-0-0----|
G|--0-0-0-0---0-0-0-0--3-3-4p0----0-0-0-0--0-0-0-0--0-0-0-0--3-3-4p0----|
D|------------0-0-0-0-------------0-0-0-0-----------0-0-0-0-------------|
A|------------0-0-0-0-------------0-0-0-0-----------0-0-0-0-------------|
E|----------------------------------------------------------------------|



Verse I:

e|---------------------------------------------|
B|---------------------------------------------|
G|---------------------------------------------|
D|--9-9-9-9-9-9-9-9-9---5-5--7-7---2-----------|
A|--9-9-9-9-9-9-9-9-9---5-5--7-7---2-----------|
E|--7-7-7-7-7-7-7-7-7---3-3--5-5---0-----------|

    When we get home
    It'll be like a party
    He's learned to move
    Real slowly

    See how he moves
    Sunlit and playful
    We have it all
    But I miss my lion

    He's already there
    Waiting to greet me


Verse II:

e|-------------------------------------|
B|-------------------------------------|
G|-------------------------------------|
D|--9-9-9-9-9-9-9-9-9---12-10/14-------|
A|--9-9-9-9-9-9-9-9-9---12-12/14-------|
E|--7-7-7-7-7-7-7-7-7---10-10/12-------|

    When you drive
    There's no fooling me
    Those roads invited me
    When you drive
    There's no fooling me
    Those roads invited me


(Verse I riff)

    When we get home
    It'll be like a party
    He's learned to move
    Real slowly

    He's already here
    Waiting to greet me


Outro:

e|----------------------------------------------------------------------|
B|--3-3-4-0------------0-0-0-0-------------3-3-4-0-----------0-0-0-0----|
G|--0-0-0-0---0-0-0-0--3-3-4p0----0-0-0-0--0-0-0-0--0-0-0-0--3-3-4p0----|
D|------------0-0-0-0-------------0-0-0-0-----------0-0-0-0-------------|
A|------------0-0-0-0-------------0-0-0-0-----------0-0-0-0-------------|
E|----------------------------------------------------------------------|



************************************

| p  Pull-off
| /  Slide up

************************************

            
            
Suggest correction
Creating personal tab
Creating personal tab
You can edit any tab online and save it as your Personal.

You can edit, replace or remove any tab part or add personal notes – all changes will be seen only by you.

Personal tabs can be accessed anytime from any device, even offline.
Learn more »
Give kudos to tab author, rate the tab!
1 2 3 4 5
comments
print report bad tab
guest
You may want to rate the tab now too:
select rating
Wanna post a correction for this tab? Suggest correction