Oops, an error
Loading. Please wait.

Groove tab

version 1
version 1

Whole song

234 views 1 this week
no commentswrite comment
1 2 3 4 5
2 more votes to show rating
add to favorites
×
Save as Personal and add changes to this tab that will be seen only by you. Learn more ›
×
You can save this tab as Personal to edit and correct it or add notes. All changes will be seen only by you. Learn more »
launch autoscroll
font size
0
reset
how to read this tab
guitar tuner
edit
Autoscroll
slow
fast
+/-
esc
set tempo
stop
Author
Difficulty
This song comes from Scratch Track, who is one of my favorite bands and has an extremely
lead guitar player. This song involves several pull offs and fast movements, but this
is simple, but still plays along with the melody of the song! ENJOY! Get their albums 
great band! Thanks, leave comments too! www.scratchtrackmusic.com

Main Riff
|------------------------------------------------------------|
|------------------------------------------------------------|
|------------------------------------------------------------|
|------------5-----------------------------------------------|
|------5--7-----7--5--7\4-4-444--3-333-33--------------------|
|--0-0-------------------------------------------------------|

repeat this for the whole song except for when secondary riff is played

Secondary Riff
|-----------------------------------------------------------|
|-----------------------------------------------------------|
|-----------------------------------------------------------|
|-----------------------------------------------------------|
|------777--------------------------------------------------|
|--0-0-----666-666---55-5555---111-11-----------------------|

            
            
Suggest correction
Creating personal tab
Creating personal tab
You can edit any tab online and save it as your Personal.

You can edit, replace or remove any tab part or add personal notes – all changes will be seen only by you.

Personal tabs can be accessed anytime from any device, even offline.
Learn more »
Give kudos to tab author, rate the tab!
1 2 3 4 5
comments
print report bad tab
guest
You may want to rate the tab now too:
select rating
Wanna post a correction for this tab? Suggest correction