Oops, an error
Loading. Please wait.

Expire tab

1,731 views 6 this week
no commentswrite comment
1 2 3 4 5
x 4
add to favorites
×
Save as Personal and add changes to this tab that will be seen only by you. Learn more ›
×
You can save this tab as Personal to edit and correct it or add notes. All changes will be seen only by you. Learn more »
launch autoscroll
font size
0
reset
how to read this tab
guitar tuner
edit
Autoscroll
slow
fast
+/-
esc
set tempo
stop
Author
Screamales tabbed this out themselves, I only take credit for putting it up here. Enjoy!
Screaming Females
"Expire"
Standard tuning
Intro/riff:
e]---------------------------------------------|
b]---------------------------------------------|
g]---------------------------------------------|
d]----------------6----------------------6-----|
a]-------2---2--7---7-6-4-6-----2---2--7---7-6-|
e]---4-4---4----------------4-4---4------------| x 1 clean

e]---------------------------------------------|
b]---------------------------------------------|
g]---------------------------------------------|
d]----------------6----------------------6-----|
a]-------2---2--7---7-6-4-6-----2---2--7---7-6-|
e]---4-4---4----------------4-4---4------------| x 2 with distortion
Tag ending to the intro/riff:
e]---4---7---6---4--|
b]---6---7---6---4--|
g]---6---8---6---4--|
d]---6---9---8---6--|
a]---4---9---8---6--|
e]---4---7---6---4--|
C# B A#m G#m
Verse:
"If no-one's listening in / I'd like to pull apart the core of you..."
e]---11-11-----------12-14-14-12--11--11-11--11-11--11-11-|
b]---12----12--------12-12-12-12--11--11-11--11-11--11-11-|
g]---13-------13-----13-13-13-13--12--12-12--12-12--12-12-|
d]---13----------13--12-12-12-12--13--13-13--13-13--13-13-|
a]---11--------------14-x--x--x---13--13-13--13-13--13-13-|
e]---11--------------12-x--x--x---11--11-11--11-11--11-11-| x 4

Chorus:

"I want to have faith in you / be wild and wander..."
e]---------12--12-12--12----------------------------------------------12--12-12--12-------------------------|
b]---------12--12-12--12----------------------------------------------12--12-12--12-------------------------|
g]---------13--13-13--13----------------------------------------------13--13-13--13-------------------------|
d]---------14--14-14--14----------------------------------------------14--14-14--14-------------------------|
a]---11-13-14--14-14--14-16-16-16-16-14----11-----11-----9------11-13-14--14-14--14-16-16-16-16-14--13--14--|
e]---9--11-12--12-12--12-14-14-14-14-12--11--11-9---9--7---7--6-9--11-12--12-12--12-14-14-14-14-12--11--12--|

------------------|
------------------|
------------------|
------------------|
13-14-13-13-14-13-|
11-12-11-11-12-11-| x1

Intro/riff (with distortion) x 2
Verse x 4
"Stack your pills for autumn / 'cause you ought to live your memories in void..."
Chorus x 1
"I want to have faith in you / be wild and wander..."

e]---4---7---6---4--|
b]---6---7---6---4--|
g]---6---8---6---4--|
d]---6---9---8---6--|
a]---4---9---8---6--|
e]---4---7---6---4--|

C# B A#m G#m

Bridge:
e]-------------|
b]-------------|
g]-------------|
d]---6-6-6-6-6-| (etc - see below)
a]-------------|
e]-------------|

Tremolo pick the sixth fret on the third string (G#) for four measures and then slide up 
the neck like this:

e]---------------------------------------------------------------------|
b]---------------------------------------------------------------------|
g]---------------------------------------------------------------------|
d]---6-6-6-6-6-6-6-6-8-8-8-8-8-8-8-8-9-9-9-9-9-9-9-9-11-11-13-16-18-18-|
a]---------------------------------------------------------------------|
e]---------------------------------------------------------------------|

e]---4-7-4-2-4-7--9-9-9-9-9-9-9-9-4-7-4-2-4-7--9-9-9-9-9-9-9-9-9-9-9-9-9-9-9-9-9-9-9-9-9-9-9-9-|
b]---5-5-5-2-5-5------------------5-5-5-2-5-5----------------------------------9-9-9-9-9-9-9-9-|
g]---6-4-6-3-6-4------------------6-4-6-3-6-4--------------------------------------------------|
d]---6-6-6-4-6-6------------------6-6-6-4-6-6--------------------------------------------------|
a]---4-4-4-x-4-4------------------4-4-4-x-4-4--------------------------------------------------|
e]---4-4-4-x-4-4------------------4-4-4-x-4-4--------------------------------------------------|

e]---4---7---6---4--|
b]---6---7---6---4--|
g]---6---8---6---4--|
d]---6---9---8---6--|
a]---4---9---8---6--|
e]---4---7---6---4--|

C# B A#m G#m

Verse x 4
"Every week I wait for you / to bring me home or break my back..."
Chorus x 1
"I want to have faith in you / be wild and wander..."
e]---------------------------------------------|
b]---------------------------------------------|
g]---------------------------------------------|
d]----------------6----------------------6-----|
a]-------2---2--7---7-6-4-6-----2---2--7---7-6-|
e]---4-4---4----------------4-4---4------------| x 2

Tag ending to the intro/riff:

e]---4---7---6---4--|
b]---6---7---6---4--|
g]---6---8---6---4--|
d]---6---9---8---6--|
a]---4---9---8---6--|
e]---4---7---6---4--|

            
            
Suggest correction
Creating personal tab
Creating personal tab
You can edit any tab online and save it as your Personal.

You can edit, replace or remove any tab part or add personal notes – all changes will be seen only by you.

Personal tabs can be accessed anytime from any device, even offline.
Learn more »
comments
print report bad tab
guest
You may want to rate the tab now too:
select rating
Wanna post a correction for this tab? Suggest correction