Oops, an error
Loading. Please wait.

Hopeless tab

1,629 views 24 this week
no commentswrite comment
1 2 3 4 5
x 3
add to favorites
×
Save as Personal and add changes to this tab that will be seen only by you. Learn more ›
×
You can save this tab as Personal to edit and correct it or add notes. All changes will be seen only by you. Learn more »
launch autoscroll
font size
0
reset
how to read this tab
guitar tuner
edit
Autoscroll
slow
fast
+/-
esc
set tempo
stop
Song:Hopeless
Album:Rose Mountain
Artist:Screaming Females
Genre:Indie Punk
Year:2015
Tuning:Standard (E,A,D,G,B,E)

Verse 1 Pt.1 x3 (Clean)
E-------------------------|
B-------------------------|
G-5~~~--------------2~~~--|
D-5~~~--5~~~--2~~~--2~~~--|
A-3~~~--5~~~--2~~~--0~~~--|
E-------3~~~--0~~~--------|

Verse 1 Pt.2 x1 (Clean)
E-------------------|
B-------------------|
G-5~~~--------5~~~--|
D-5~~~--5~~~--5~~~--|
A-3~~~--5~~~--3~~~--|
E-------3~~~--------|

Then:
*Verse 1 Pt.1 x3 (Clean)
*Verse 1 Pt.2 x1 (Clean)

Chorus 1 Pt.1 x2 (Clean)
E---------------------|
B---------------------|
G----------------2----|
D-3----5----2----2x8--|
A-3x8--5x8--2x8--0----|
E-1----3----0---------|

Chorus 1 Pt.2 x1
E-----------------------------|
B-----------------------------|
G-----------5~~~--------2~~~--|
D-3----5----5~~~--5~~~--2~~~--|
A-3x8--5x8--3~~~--5~~~--0~~~--|
E-1----3----------3~~~--------|

Pre-Verse 1 x1 (Heavy Distortion, Neck Pickup)
E---------------------|
B(      P.M     )--O--|
G-----------5------5--|
D-3----5----5x12---5--|
A-3x8--5x8--3------3--|
E-1----3--------------|

Verse 2 Pt.1 x1 (Heavy Distortion, Neck Pickup)
E---------------------|
B---------------------|
G-5--------------2----|
D-5x8--5----2----2x8--|
A-3----5x8--2x8--0----|
E------3----0---------|

Verse 2 Pt.2 x1 (Heavy Distortion, Neck Pickup)
E------------------------------------|
B------------------------------------|
G-5--------------------2~--2~--------|
D-5x8--5----2---(P.M)--2~--2~--5555--|
A-3----5x8--2x4--222---0~--0~--5555--|
E------3----0----000-----------3333--|

Verse 2 Pt.3 x1 (Heavy Distortion, Neck Pickup)
E---------------------|
B---------------------|
G-5--------------2----|
D-5x8--5----2----2x8--|
A-3----5x8--2x8--0----|
E------3----0---------|

Outro x1
E--------------------|
B--------------------|
G-5---------5~~~~~~--|
D-5x8--5----5~~~~~~--|
A-3----5x8--3~~~~~~--|
E------3-------------|

Song Order:
*Verse 1 Pt.1 x3 (Clean)
*Verse 1 Pt.2 x1 (Clean)
*Verse 1 Pt.1 x3 (Clean)
*Verse 1 Pt.2 x1 (Clean)
*Chorus 1 Pt.1 x2 (Clean)
*Chorus 1 Pt.2 x1
*Pre-Verse 1 x1 (Heavy Distortion, Neck Pickup)
*Verse 2 Pt.1 x1 (Heavy Distortion, Neck Pickup)
*Verse 2 Pt.2 x1 (Heavy Distortion, Neck Pickup)
*Verse 2 Pt.3 x1 (Heavy Distortion, Neck Pickup)
*Outro x1

Key:
~= Let Chord/ Or Note Ring Out
P.M= Palm Mute


*Don't Forget To Rate And Comment If You Liked The Tab, And Comment Any
Corrections, I Welcome Corrections.

*Here's A Link To The Song, If You Would Like To
Play Along To The Song: https://www.youtube.com/watch?v=ZIL6QUYoUes

            
            
Suggest correction
Creating personal tab
Creating personal tab
You can edit any tab online and save it as your Personal.

You can edit, replace or remove any tab part or add personal notes – all changes will be seen only by you.

Personal tabs can be accessed anytime from any device, even offline.
Learn more »
Give kudos to tab author, rate the tab!
1 2 3 4 5
comments
print report bad tab
guest
You may want to rate the tab now too:
select rating
Wanna post a correction for this tab? Suggest correction