Oops, an error
Loading. Please wait.
We have an official The Girl Next Door tab made by UG professional guitarists. Check out the tab »
×
3,329 views 6 this week
4 commentsread comments
1 2 3 4 5
x 7
add to favorites
×
Save as Personal and add changes to this tab that will be seen only by you. Learn more ›
×
You can save this tab as Personal to edit and correct it or add notes. All changes will be seen only by you. Learn more »
launch autoscroll
font size
0
reset
how to read this tab
guitar tuner
edit
Autoscroll
slow
fast
+/-
esc
set tempo
stop
Screeching Weasel - The Girl Next Door
Lisa 


I think this is right but dont hold me to it.

CHORDS

    G5  B5  Em  C5  

|-------------------|
|-------------------|
|-------4-------5---|
|---5---4---2---5---|
|---5---2---2---3---|
|---3-------0-------|

RIFF 1

|----------------------------------|
|----------------------------------|
|----------44444444--------5555555-|
|--5555555544444444222222225555555-|
|--5555555522222222222222223333333-|
|--33333333--------00000000--------|

RIFF 2

|----------------------------------|
|----------------------------------|
|----------------------------------|
|----------------------------------|
|-------2--3--2-----------5--------|
|-3--5-----------5--3--5-----------|


INTRO:  RIFF1 (*2)
	RIFF2 (*4)
	
Verse1:G5 B5 Em C5
G5                        B5
a white girl living in the city
                     Em
in a big apartment house
                         C5xC5xC5             
she's living with her boyfriend now

(same chords)
she drives off everday for school and work
she wases dishes now
and watches tv on the pull-out couch

CHORUS:G5 B5 Em C5
G5                   B5
but every day's the same
          Em                 C5
        but every day's the same
(same chords)
and every day's the same
        and every day's the same
and every day's the same
	and every day's the same
and every day's the same
	and every day's the same

Verse2:(same chords)
a white girls moves back to the suburbs
she's finally found a man
who knows how to take care of her

they bought the perfect little house
and the lawn's well manicured
and she's never missed a day of work

repeat CHORUS

verse 3:(same chords)

(palm mute chords)
the white girl couldn't go on knowing
that she was just here wasting time
she drowned in the lake last night

(chords back to normal)
they found her bloated body floating
but she still walks around
performing all her daily chores

RIFF2
she still don't know
RIFF2
what life's about
RIFF2
she still don't know
RIFF2
what life's about

repeat chorus
end on G5

            
            
Suggest correction
Creating personal tab
Creating personal tab
You can edit any tab online and save it as your Personal.

You can edit, replace or remove any tab part or add personal notes – all changes will be seen only by you.

Personal tabs can be accessed anytime from any device, even offline.
Learn more »
comments
print report bad tab
4 comments total. Showing first comments.
0 reply
soulphonate 10 Nov 19, 2007 06:52 AM

I don't see what's wrong with this song. I don't know why it doesn't have 5 stars.

0 reply
brunito3427 10 Oct 17, 2017 10:16 AM

The Chorus sounds like this

|-------------------|
|-------------------|
|-------7---5---5---|
|---5---7---5---5---|
|---5---5---3---3---|
|---3---------------|

Nice tab, tho

0 reply
brunito3427 10 Oct 17, 2017 10:22 AM

And the Riff sounds better like this:

|----------------------------------|
|--------------3^------------------|
|--0-2-4-5-4-2---------------------|
|----------------------------------|
|----------------------------------|
|----------------------------------|

guest
Wanna post a correction for this tab? Suggest correction