Oops, an error
Loading. Please wait.

Purging Of The Wicked tab

version 1
version 1

Whole song

Interactive

10,312 views 1 this week
7 commentsread comments
1 2 3 4 5
x 8
add to favorites
×
Save as Personal and add changes to this tab that will be seen only by you. Learn more ›
×
You can save this tab as Personal to edit and correct it or add notes. All changes will be seen only by you. Learn more »
launch autoscroll
font size
0
reset
how to read this tab
guitar tuner
edit
Autoscroll
slow
fast
+/-
esc
set tempo
stop
  Thought i'd give it a shot.
Please tell me if im wrong or make corrections for me because i know it will be wrong 
i learned it myslef.  :p


(0:00 - 0:30)
Intro pI
Both Guitars


       Just a bunch of these in the beginning.
/---------------------------------------------\
/---------------------------------------------\
/---------------------------------------------\
/-0---0--0-0-0-0-0---0--0-0-0-0---------------\
/-0---0--0-0-0-0-0---0--0-0-0-0---------------\
/-0---0--0-0-0-0-0---0--0-0-0-0---------------\

============================================================================


(0:31 - 0:48)
Intro pII
Guitar 1


/-------------------------------------------------------\
/-------------------------------------------------------\
/-------------------------------------------------------\
/-0-0-----------0-0------0-0-------8-8--------5-5-------\  x4
/-0-0-8-7-5h7h8-0-0-8h10-0-0-12p10-8-8-10-8-7-5-5-5-7-8-\
/-0-0-----------0-0------0-0-------8-8--------5-5-------\

Guitar 2

                                                (0:39)
/----------------------\                      /---------\
/----------------------\  x2                  /---------\ then play as
/----------------------\ palm mute on         /---------\ guitar 1 would
/-0-0-------8-8---5-5--\ the second time.     /-3p0-5-7-\ twice.
/-0-0-------8-8---5-5--\  then add this --->  /---------\
/-0-0-------8-8---5-5--\                      /---------\

============================================================================

(0:49 -(1:06)
Verse

/-------------------------------------------------------------------------|
/-------------------------------------------------------------------------|
/-------------------------------------------------------------------------|
/-0-0---------0-0--0-0----0-0---------0-0--0-0----0-0-------10p8-0-0--0-0-|
/-0-0-8-7-7p0-0-0--0-0----0-0-8-7-7p0-0-0--0-0----0-0-12-10------0-0--0-0-|
/-0-0---------0-0--0-0----0-0---------0-0--0-0----0-0------------0-0--0-0-|

/--------------------------\
/--------------------------\
/--------------------------\ x2
/-0-0-------10p8-8-8---5-5-\
/-0-0-12-10------8-8---5-5-\
/-0-0------------8-8---5-5-\

============================================================================

(1:06 - 1:23)
Verse 2

/--------------------------------------------------\
/--------------------------------------------------\
/--------------------------------------------------\  x4
/-8---------5---------10------------12-------------\
/-8-8-8-7h8-5-5-8-7h8-10-10-10-8h10-12-12-13-12-10-\
/-8-8-------5-5-------10-10---------12-12----------\


(1:24 - 1:30)

/-----------------------\
/-----------------------\
/-----------------------\
/-8----------5----------\
/-8----------5----------\
/-8----------5----------\


(1:30 - 2:01)               (1:45 - 1:46)
                                and
then some more fat 0's      (2:02 - 2:03)
/-----------------\          /-------\
/-----------------\          /-------\
/-----------------\          /-------\
/-0--0--0-0-0-0-0-\          /-8--10-\
/-0--0--0-0-0-0-0-\          /-8--10-\
/-0--0--0-0-0-0-0-\          /-8--10-\

============================================================================

(2:03 - 2:32)
Verse 3

 you can put the 0's in your self
/----------------------------------------------------------------------|
/----------------------------------------------------------------------|
/----------------------------------------------------------------------|
/-10-10-10-10    10-10-10-7    7-7-7-8-------------------------5-5-5-5-|
/-8--8--8--10    10-10-10-7    7-7-7-8-5-5-5-5-7-7-7-7-8-8-8-8---------|
/----------10    10-10-10-7    7-7-7-8---------------------------------|

                                    (2:32 - 2:34)

/-----------------------\     /----------------------\
/-----------------------\     /----------------------\
/-----------------------\ x3  /----------------------\
/-8-8-8-8-7-7-7-7-5h7p5-\     /-0--0--0--0--0--------\
/-----------------------\     /-0--0--0--0--0----10*-\

============================================================================
(2:35 - 2:52)
Intro again

   x4

============================================================================
(2:53 - 3:26)
Breakdown nigga

guitar 1            guitar 2            Both guitars
(2:53)              (2:54)              (2:55 - 2:56)
/---------------\   /--------------\    /----------\
/---------------\   /--------------\    /----------\
/---------------\   /--------------\    /----------\
/---------------\   /--------------\    /-0-0-0----\
/---------------\   /--------------\    /-0-0-0-7*-\
/-0-0-0---0-0-0-\   /-0-0-0--0-0-0-\    /-0-0-0----\

(2:58 - 3:00)         (3:02 - 3:04)         (3:05 - 3:07------\
/----------------\   /-----------------\   /------------------\
/----------------\   /-----------------\   /------------------\
/----------------\   /-----------------\   /------------------\
/-8-5-7-5-8-5----\   /-8-5-7-5-8-5-7-5-\   /-8-5-7-5-8-5------\
/-8-5-7-5-8-5-7*-\   /-8-5-7-5-8-5-7-5-\   /-8-5-7-5-8-5-7*---\
/-8-5-7-5-8-5----\   /-8-5-7-5-8-5-7-5-\   /-8-5-7-5-8-5------\

(3:13 - 3:26)                                                           x2
/-------------------------------------------------------------------------\
/-------------------------------------------------------------------------\
/-------------------------------------------------------------------------\
/-------------------------0-0-0-0-0-0-0-0-0-0-0-0-------------------------\
/-5-5-5-8-8-8-4-4-4-7-7-7-0-0-0-0-0-0-0-0-0-0-0-0-8-8-8-5-5-5-7-7-7-4-4-4-\
/-------------------------0-0-0-0-0-0-0-0-0-0-0-0-------------------------\

============================================================================
(3:26 - 3:48)
Verse 4

(3:26 - 3:43)                                    x4   (3:44 - 3:48)
/--------------------------------------------------\  /-------------------\
/--------------------------------------------------\  /-------------------\
/--------------------------------------------------\  /-------------------\
/-8---------5---------10------------12-------------\  /-8---------------5-\
/-8-8-8-7h8-5-5-8-7h8-10-10-10-8h10-12-12-13-12-10-\  /-8---8h10-8-8h10-5-\
/-8-8-------5-5-------10-10---------12-12----------\  /-8---------------5-\
============================================================================

I'll post the solo later. :]

            
            
Suggest correction
Creating personal tab
Creating personal tab
You can edit any tab online and save it as your Personal.

You can edit, replace or remove any tab part or add personal notes – all changes will be seen only by you.

Personal tabs can be accessed anytime from any device, even offline.
Learn more »
comments
print report bad tab
7 comments total. Showing first comments.
0 reply
xxrobbiechaosxx 127 Sep 15, 2008 03:13 PM

Even though the beginning is just open strings, it's still extremely heavy xD

0 reply
skate4life07 10 Sep 16, 2008 09:00 PM

i think the intro's kinda off.
i think it goes -5-8-7h5- instead.

and the verse is the same thing.

just a correction [:

everything else is great man.

0 reply
the_kid_tek 115 Nov 20, 2008 06:09 AM

Open C tuning? Are you sure? :S

guest
You may want to rate the tab now too:
select rating
Wanna post a correction for this tab? Suggest correction