Oops, an error
Loading. Please wait.

Rams Head tab

499 views 9 this week
no commentswrite comment
1 2 3 4 5
x 3
add to favorites
×
Save as Personal and add changes to this tab that will be seen only by you. Learn more ›
×
You can save this tab as Personal to edit and correct it or add notes. All changes will be seen only by you. Learn more »
launch autoscroll
font size
0
reset
how to read this tab
guitar tuner
edit
Autoscroll
slow
fast
+/-
esc
set tempo
stop
Author
[Intro]

e|--------------------------------------------------------|
B|-----------------------------------------------5--------|
G|-----0-----0-----0-----0-----5-----5-----5-----5--------|
D|-----2-----0-----0-----0-----7-----7-----5--5-----------|    x4
A|--------------------2-----------7-----3-----------------|
E|--0-----2-----3-----------5-----------------------------|


[Verse]

e|--------------------------------------------------------|
B|-----------------------------------------------5--------|
G|-----0-----0-----0-----0-----5-----5-----5-----5--------|
D|-----2-----0-----0-----0-----7-----7-----5--5-----------|    x4
A|--------------------2-----------7-----3-----------------|
E|--0-----2-----3-----------5-----------------------------|

I thought I said it all when I put it up on the wall
The golden ram's head hanging just above the fire place
The flames crackled and the wood was glowing
The frames were warming and the wood was glowing


[Chorus]

e|--------------------------------------------------------------------------------------|
B|-----3-----3-----3-----3-----5-----5-----5-----5--------------------------------------|
G|-----4-----4-----4-----4-----5-----5-----5-----5----4-----4-----5-----5-----5-----5---|
D|--------4-----------4-----------5-----------5-------5-----5-----7-----7-----7-----7---|  x2
A|--2-----------2-----------3-----------3----------------5-----------7-----------7------|
E|--------------------------------------------------3----------5-----------5------------|

Yesterday is over and tomorrow nears 
and I just wanna stay right here
The blanket on your shoulder says tomorrow nears 
and I just wanna stay right here


[Verse]

e|--------------------------------------------------------|
B|-----------------------------------------------5--------|
G|-----0-----0-----0-----0-----5-----5-----5-----5--------|
D|-----2-----0-----0-----0-----7-----7-----5--5-----------|    x6
A|--------------------2-----------7-----3-----------------|
E|--0-----2-----3-----------5-----------------------------|

The weather's changing so I did some rearranging
I put the golden ram's head high above the fireplace
The flames crackled glowing red
the flames were warming and reflected in its glassy eye


[Chorus]

e|--------------------------------------------------------------------------------------|
B|-----3-----3-----3-----3-----5-----5-----5-----5--------------------------------------|
G|-----4-----4-----4-----4-----5-----5-----5-----5----4-----4-----5-----5-----5-----5---|
D|--------4-----------4-----------5-----------5-------5-----5-----7-----7-----7-----7---|  x3
A|--2-----------2-----------3-----------3----------------5-----------7-----------7------|
E|--------------------------------------------------3----------5-----------5------------|

Yesterday is over and tomorrow nears 
and I just wanna stay right here
The blanket on your shoulder says tomorrow nears 
and I just wanna lay right here

ooo oo ooo 

e|---------------------------------------------------------------|
B|-----3-----3-----3-----3-----5-----5---------------------------|
G|-----4-----4-----4-----4-----5-----5-----5-----5-----5-----5---|
D|--------4-----------4-----------5--------7-----7-----7-----7---|  
A|--2-----------2-----------3-----------------7-----------7------|
E|--------------------------------------5-----------5------------|
 
Yesterday is over and tomorrow's near


[Instrumental]

e|--------------------------------------------------|
B|-----------------------------------------5--------|
G|-----0-----0-----0-----0-----5-----5-----5--------|
D|-----2-----0-----0-----0-----7-----7--------------|    x3
A|--------------------2-----------7-----3-----------|
E|--0-----2-----3-----------5-----------------------|

e|--------------------------------------------------------|
B|-----------------------------------------------5--------|
G|-----0-----0-----0-----0-----5-----5-----5-----5--------|
D|-----2-----0-----0-----0-----7-----7-----5--5-----------|    
A|--------------------2-----------7-----3-----------------|
E|--0-----2-----3-----------5-----------------------------|


[Chorus]

e|--------------------------------------------------------------------------------------|
B|-----3-----3-----3-----3-----5-----5-----5-----5--------------------------------------|
G|-----4-----4-----4-----4-----5-----5-----5-----5----4-----4-----5-----5-----5-----5---|
D|--------4-----------4-----------5-----------5-------5-----5-----7-----7-----7-----7---|  x4
A|--2-----------2-----------3-----------3----------------5-----------7-----------7------|
E|--------------------------------------------------3----------5-----------5------------|

Yesterday is over and tomorrow's near 
and I just wanna stay right here
The blanket on your shoulder says tomorrow nears 
and I just wanna lay right here

ooo oo ooo 

Yesterday is over and tomorrow is near


[Outro]

e|---------------------------------------------------------------------------|
B|-----3-----3-----3-----3-----------------------------5-----5-----5-----5---|
G|-----4-----4-----4-----4-----4-----4-----4-----4-----5-----5-----5-----5---|
D|--------4-----------4--------5-----5-----5-----5--------5-----------5------|
A|--2-----------2-----------------5-----------5-----3-----------3------------|
E|--------------------------3-----------3------------------------------------|

e|---------------------------------------------------------------------------|
B|---------------------------------------------------------------------------|
G|-----5-----5-----5-----5-----5-----5---------------------------------------|
D|-----7-----7-----7-----7-----7-----7---------------------------------------|
A|--------7-----------7-----------7------------------------------------------|
E|--5-----------5-----------5-----------5------------------------------------|

            
            
Suggest correction
Creating personal tab
Creating personal tab
You can edit any tab online and save it as your Personal.

You can edit, replace or remove any tab part or add personal notes – all changes will be seen only by you.

Personal tabs can be accessed anytime from any device, even offline.
Learn more »
Give kudos to tab author, rate the tab!
1 2 3 4 5
comments
print report bad tab
guest
You may want to rate the tab now too:
select rating
Wanna post a correction for this tab? Suggest correction