Oops, an error
Loading. Please wait.

Atlantis intro tab

version 1
version 1

Intro

Whole song

by Seafret
4,999 views 105 this week
3 commentsread comments
1 2 3 4 5
x 21
add to favorites
×
Save as Personal and add changes to this tab that will be seen only by you. Learn more ›
×
You can save this tab as Personal to edit and correct it or add notes. All changes will be seen only by you. Learn more »
launch autoscroll
font size
0
reset
how to read this tab
guitar tuner
edit
Autoscroll
slow
fast
+/-
esc
set tempo
stop
-------------------------------------------------------------------------------
                             Atlantis - Seafret
-------------------------------------------------------------------------------
Tabbed by: iainalderson97
E-mail: iain-alderson@hotmail.co.uk

Tuning: Standard (Capo 4)

e|-----------------|-----------------|-----------------|-----------------|
B|-----------------|-----------------|-----------------|-----------------|
G|-------0-------0-|-------0-------0-|-------0-------0-|-------0-------0-|
D|---2-------2-----|---2-------4-----|---5-------5-----|---5-------5-----|
A|-3---3---3---3---|-3---3---5---5---|-7---7---7---7---|-7---7---7---7---|
E|-----------------|-----------------|-----------------|-----------------|

e|-----------------|-----------------|-----------------|-----------------|
B|-----------------|-----------------|-----------------|-----------------|
G|-------0-------0-|-------0-------0-|-------0-------0-|-----------------|
D|---2-------2-----|---2-------4-----|---5-------5-----|---4-------------|
A|-3---3---3---3---|-3---3---5---5---|-7---7---7---7---|-5---------------|
E|-----------------|-----------------|-----------------|-----------------|


************************************

| /   slide up
| \   slide down
| h   hammer-on
| p   pull-off
| ~   vibrato
| +   harmonic
| x   Mute note
| b   Bend
| pb  Pre-bend
| br  Bend release
| pbr Pre-bend release
| brb Bend release bend

************************************

            
            
Suggest correction
Creating personal tab
Creating personal tab
You can edit any tab online and save it as your Personal.

You can edit, replace or remove any tab part or add personal notes – all changes will be seen only by you.

Personal tabs can be accessed anytime from any device, even offline.
Learn more »
comments
print report bad tab
3 comments total.
0 reply
3k3m1n1 20 Feb 03, 2017 07:18 PM

so helpful!! thanks :)

0 reply
Celaena 31 Sep 22, 2017 01:03 PM

Hi! I am learning this song so I can perform it with my sister (who is a super singer by the way ;)) so thank you so much for this tab! This is like the only one that is really how I want to play it :) Thank you!

0 reply
mannycpa 10 Nov 11, 2017 07:26 PM

This tab rocks :) thanks!

guest
You may want to rate the tab now too:
select rating
Wanna post a correction for this tab? Suggest correction