Oops, an error
Loading. Please wait.
We have Chord Pro version of Kiss From A Rose.
It's the closest thing you can get to the original song and it has interactive parts. Check out the tab »
×

Kiss From A Rose chords

version 5
version 5

Whole song

Interactive

Video

by Seal
74,252 views 243 this week
3 commentsread comments
1 2 3 4 5
x 42
add to favorites
×
Save as Personal and add changes to this tab that will be seen only by you. Learn more ›
×
You can save this tab as Personal to edit and correct it or add notes. All changes will be seen only by you. Learn more »
launch autoscroll
font size
0
reset
transpose
0
reset
simplify chords
display chords
guitar tuner
backing track
0:00
0:00
edit
Autoscroll
slow
fast
+/-
esc
set tempo
stop
Author
Difficulty
Strumming
There is no strumming pattern for this song yet. and get +5 IQ
[Chords for intro]
    Gm    F     G
e|--3--|--1--|--3--|
B|--3--|--1--|--0--|
G|--3--|--2--|--0--|
D|--5--|--3--|--0--|
A|--5--|--3--|--2--|
E|--3--|--1--|--3--|

[Intro] (x2)
          Gm               F              G
Ba ya     ya      ba da    ba    da da    da    Ba ya ya ba ya

(The verse uses the same chords as above plus the following chords)
   Eb     C 
e|--3--|--0--|
B|--4--|--1--|
G|--3--|--0--|
D|--5--|--2--|
A|-----|--3--|
E|-----|-----|

[Verse]
G                               Eb         F          G
     There used to be a graying tow-er  a-lone on the sea
               Eb           F            G
You became the light on the dark side of me
                   F               C                G
But love remains a drug that's the high and not the pill
                               Gm        Eb          F
But did you know, that when it snows, my eyes become large
        Eb             F              G
And the light that you shine can't be seen

(The chorus adds one more chord)
  Fsus4
e|--1--|
B|--1--|
G|--3--|
D|--3--|
A|-----|
E|-----|

[Chorus]
     G                      Eb          F           G               
Ba - by, I compare you to a kiss from a rose on the grey
                          F                Fsus4                 G
The more I get of you the stran - ger it   feels,       yeah ...
                  Eb         F
And now that your rose is in bloom
  Eb             F            G
A light hits the gloom on the grey

[Instrumental] (x2)
          Gm               F              G
Ba ya     ya      ba da    ba    da da    da    Ba ya ya ba ya

[Verse]
(G)                                Eb            F           G
       There is so much a man can  tell  you, so much he can say
              Eb           F              G
You remain my pow - er, my plea -sure, my pain
          Eb                           F                       G
Baby, to  me   you're like growing ad-dic-tion that I can't de-ny
                           Eb                 F
Won't you tell me, is that heal-thy baby?
            G                  Gm
But did you know, that when it snows
   Eb          F             Eb             F              G
My eyes become large and the light that you shine can't be seen

[Chorus]
     G                      Eb          F           G               
Ba - by, I compare you to a kiss from a rose on the grey
                          F                Fsus4                 G
The more I get of you the stran - ger it   feels,       yeah ...
                  Eb         F
And now that your rose is in bloom
  Eb             F            G
A light hits the gloom on the grey

[Bridge]
(The bridge adds 2 more chords)
    Bb   C/F 
e|-----|--0--|
B|--3--|--1--|
G|--3--|--0--|
D|--3--|--3--|
A|--1--|-----|
E|-----|-----|

(This first progression is played before the singing begins)
G    Eb  F  Eb  F

There is some overdubbing on the singing here but if you listen to it a couple times you'll get it
F        C/F      C            Bb           F      
I've    been      kissed by a  rose  on the grey

(The singing part of the bridge is played four times.  On the last repetition it 
will end on a G chord instead of an F so that it transitions back to the verse...)

[Verse]
(G)                                Eb            F           G
       There is so much a man can  tell  you, so much he can say
              Eb           F              G
You remain my pow - er, my plea -sure, my pain
          Eb                           F                       G
Baby, to  me   you're like growing ad-dic-tion that I can't de-ny
                           Eb                 F
Won't you tell me, is that heal-thy baby?
            G                  Gm
But did you know, that when it snows
   Eb          F             Eb             F              G
My eyes become large and the light that you shine can't be seen

[Chorus]
(last chorus, play it once or twice)
     G                      Eb          F           G               
Ba - by, I compare you to a kiss from a rose on the grey
                          F                Fsus4                 G
The more I get of you the stran - ger it   feels,       yeah ...
                  Eb         F
And now that your rose is in bloom
  Eb             F            G
A light hits the gloom on the grey

[Outro]
(G)                    Eb         F
         Now that your rose is in bloom
  Eb             F             G
a light hits the gloom  on the bay

            
            
Suggest correction
Creating personal tab
Creating personal tab
You can edit any tab online and save it as your Personal.

You can edit, replace or remove any tab part or add personal notes – all changes will be seen only by you.

Personal tabs can be accessed anytime from any device, even offline.
Learn more »
comments
print report bad tab
3 comments total.
+2 reply
androssity 10 Oct 20, 2010 09:47 PM

Played it with the original song... sounds like a match. Good tab!

0 reply
mattreczynski 10 Mar 18, 2014 09:43 PM

intro and bit at 1:14

e:------------------------------------------------------|
B:----8-10-11-11s13s11-10h11p10--8--8s6s8---------------|
G:------------------------------------------------------|
D:------------------------------------------------------|
A:------------------------------------------------------|
E:------------------------------------------------------|

e:------------------------------------------------------|
B:----8-10-11-11s13s11-10----8s10s8---(8s6s8)-----------|
G:------------------------------------------------------|
D:------------------------------------------------------|
A:------------------------------------------------------|
E:------------------------------------------------------|
~next solo bit~ 2:25
e:------------------------------------------------------|
B:----8-10-11-11s13s11-10h11p10--8--8s6s8---------------|
G:------------------------------------------------------|
D:------------------------------------------------------|
A:------------------------------------------------------|
E:------------------------------------------------------|

e:------------------------------------------------------|
B:----8-10-11-11s13s11-10----8s10s8---(8s6s8)-----------|
G:------------------------------------------------------|
D:------------------------------------------------------|
A:------------------------------------------------------|
E:------------------------------------------------------|

e:------------------------------------------------------|
B:----8-10-11-11s13s11-10-8-10-11-11s13s11---(6s8-8)----|
G:------------------------------------------------------|
D:------------------------------------------------------|
A:------------------------------------------------------|
E:------------------------------------------------------|

~outro~ 4:16
e:------------------------------------------------------|
B:----8-10-11-11s13s11-10h11p10--8--8s6s8---------------|
G:------------------------------------------------------|
D:------------------------------------------------------|
A:------------------------------------------------------|
E:------------------------------------------------------|

e:------------------------------------------------------|
B:----8-10-11-11s13s11-10----8s10s8---(8s6s8)-----------|
G:------------------------------------------------------|
D:------------------------------------------------------|
A:------------------------------------------------------|
E:------------------------------------------------------|

0 reply
Gangster K 10 Aug 27, 2017 03:00 PM

Awesome tab, thanks

guest
You may want to rate the tab now too:
select rating
Wanna post a correction for this tab? Suggest correction