Oops, an error
Loading. Please wait.

My Home Blue Eyes tab

3,947 views 1 this week
no commentswrite comment
1 2 3 4 5
2 more votes to show rating
add to favorites
×
Save as Personal and add changes to this tab that will be seen only by you. Learn more ›
×
You can save this tab as Personal to edit and correct it or add notes. All changes will be seen only by you. Learn more »
launch autoscroll
font size
0
reset
how to read this tab
guitar tuner
edit
Autoscroll
slow
fast
+/-
esc
set tempo
stop
Author
Tabbers playing skills
intermediate +
-------------------------------------------------------------------------------
                             My Home[Blues Eyes] - Seasick Steve
-------------------------------------------------------------------------------
Tabbed by: grantburgh
Email: grantburgh@hotmail.com

Tuning: Open D - DADF#AD

He uses a normal acoustic with 6 strings, with a slide on his third finger for this song.

Don't use a plectrum, finger pick so you can damp the strings that you don't want to be 
when your sliding up
and down.

Also I've not tabbed each and every strum of a chord because I can't be bothered working 
strumming patterns, just play
what feels right.

INTRO

d |---0/4--------0/7---------4\0---3\2-----------0--0--0---------0--0--0-------|
A |----------------------------------------------0--0--0---------0--0--0-------|
F#|----------------------------------------------3--3--3---------3--3--3-------|
D |----------------------------------------------0--0--0---------0--0--0-------|
A |-----------------------------------------0h2--2--2--2----0h2--2--2--2-------|
D |--------------0-------------------------------------------------------------|

d |-------0--0--0------0--0--0---0/4---4\0--------0---4\0--------0----0-----0--|
A |-------0--0--0------0--0--0---------------2p0------------2p0----------2-----|
F#|-------3--3--3------3--3--3-------------------------------------------------|
D |-------0--0--0------0--0--0-------------------------------------------------|
A |--0h2--2--2--2----0h2--2--2-------------------------------------------------|
D |------------------------------0---------------------------------------------|


VERSE

When playin this open chord just pick any strings, listen to the track to hear it.

d |---0--0--0--0--0---0/4-0--4\0-------0---0--0--0--0--0------0--4\0---0-------|
A |---0--0--0--0--0----------------2-------0--0--0--0--0---2-------------------|
F#|---0--0--0--0--0------------------------0--0--0--0--0-----------------------|
D |---0--0--0--0--0------------------------0--0--0--0--0-----------------------|
A |---0--0--0--0--0------------------------0--0--0--0--0-----------------------|
D |---0--0--0--0--0------------------------0--0--0--0--0-----------------------|


d |-----/7-7-7-----7/9---4\0----------0---0--0--0---0-0--0--0--0---0-0--0---------|
A |-----------------------------2p0-------0--0--0---0h3--3--3--3---0h3--3---------|
F#|---------------------------------------0--0--0---0-0--0--0--0---0-0--0---------|
D |---------------------------------------0--0--0---0h2--2--2--2---0h2--2---------|
A |---------------------------------------0--0--0---0-0--0--0--0---0-0--0---------|
D |------0--------------------------------0--0--0---------------------------------|

CHORUS

d |--0--0--0--0--0---0--0--0--0--0---0--0--0--0--0---0--0--0--0--0-----------|
A |--0--0--0--0--0---0--0--0--0--0---0--0--0--0--0---0--0--0--0--0-----------|
F#|--3--3--3--3--3---0--0--0--0--0---3--3--3--3--3---0--0--0--0--0-----------|
D |--0--0--0--0--0---0--0--0--0--0---0--0--0--0--0---0--0--0--0--0-----------|
A |--2--2--2--2--2---0--0--0--0--0---2--2--2--2--2---0--0--0--0--0-----------|
D |--0--0--0--0--0---0--0--0--0--0---0--0--0--0--0---0--0--0--0--0-----------|

d |--0--0--0--0--0-----------0-0-0-0-0-----------------0---|
A |--0--0--0--0--0-----------5-5-5-5-5-----------------0---|
F#|--3--3--3--3--3-----------0-0-0-0-0-----------------0---|
D |--0--0--0--0--0---/5--0---x-x-x-x-x----/7~----------0---|
A |--2--2--2--2--2---/5--0---2-2-2-2-2----/7~-----2p0--0---|
D |--0--0--0--0--0---/5--0----------------/7~----------0---|


     Rinse and repeat!

What's the use in saying that I love you,
What's the use in saying sky be blue,
Don't need to talk about how world be round,
I don't need a promise I'll be true,

The night never promised the day,
The rain never promised the sun,
It just seemed to work out that way,
And just like that I'll be back when the day is done,

Cos my home is where your blue eyes are,
And my town is where your brown hair falls,
And my country's when I'm in your arms,
And my world its going just to far,

hmmmmmm x 4

I could sing you a song tonight,
Or write you a letter in the sand,
But you know that you know I know,
I will always be a loving man,
So lets get down to plain speakin,
Your the reason that my heart keep on beatin,
And thats about as deep its gonna get,
Your the only thing I got thats left,

Cos my home is where your blue eyes are,
And my town is where your brown hair falls,
And my country's when I'm in your arms,
And my world its going just to far,

Cos my home is where your blue eyes are,
And my town is where your brown hair falls,
And my country's when I'm in your arms,
And my world its going just to far,

hey hey heeey!


************************************

| /   slide up
| \   slide down
| h   hammer-on
| p   pull-off
| ~   vibrato
| +   harmonic
| x   Mute note
| b   Bend
| pb  Pre-bend
| br  Bend release
| pbr Pre-bend release
| brb Bend release bend

************************************

            
            
Suggest correction
Creating personal tab
Creating personal tab
You can edit any tab online and save it as your Personal.

You can edit, replace or remove any tab part or add personal notes – all changes will be seen only by you.

Personal tabs can be accessed anytime from any device, even offline.
Learn more »
Give kudos to tab author, rate the tab!
1 2 3 4 5
comments
print report bad tab
guest
You may want to rate the tab now too:
select rating
Wanna post a correction for this tab? Suggest correction