Oops, an error
Loading. Please wait.

Skull chords

by Sebadoh
10,285 views 21 this week
1 commentread comment
1 2 3 4 5
x 7
add to favorites
×
Save as Personal and add changes to this tab that will be seen only by you. Learn more ›
×
You can save this tab as Personal to edit and correct it or add notes. All changes will be seen only by you. Learn more »
launch autoscroll
font size
0
reset
transpose
0
reset
display chords
guitar tuner
edit
Autoscroll
slow
fast
+/-
esc
set tempo
stop
Strumming
There is no strumming pattern for this song yet. and get +5 IQ
SKULL
By Sebadoh
From Bakesale (1994)

Tuning: 1/2 step down.

Opening chords:

     D    G
d#|--0----0------|
A#|--3----3------|
A#|--2----4------|
C#|--4----5------|
G#|--5----5------|
D#|--------------|

During "Gently take my skull for a ride":

    D    C     G
d#|-2----0-----3-----|
A#|-3----3-----3-----|
A#|-2----0-----0-----|
C#|-0----x-----0-----|
G#|------3-----x-----|
D#|------------3-----|

During "we can never ever...":

     D     C     D
d#|--2-----0-----2-----|
A#|--3-----3-----3-----|
A#|--2-----0-----2-----|
C#|--0-----x-----0-----|
G#|--------3-----------|
D#|--------------------|


I didn't find it necessary to include a legend, but if you
were wondering, "x" is a dead note (ie. don't play that string).
Cheers to Lou and Sebadoh!

====================================================================

            
            
Suggest correction
Creating personal tab
Creating personal tab
You can edit any tab online and save it as your Personal.

You can edit, replace or remove any tab part or add personal notes – all changes will be seen only by you.

Personal tabs can be accessed anytime from any device, even offline.
Learn more »
comments
print report bad tab
1 comment total.
+1 reply
lhulme 269 Mar 02, 2015 11:37 AM

The middle section uses these chords...

d#--0---10---0-------------
a#--5----8---7------------
f#--7----9---7------------
c#--7---10---0--------------
g#--------------------------
d#------------------------

guest
You may want to rate the tab now too:
select rating
Wanna post a correction for this tab? Suggest correction