Oops, an error
Loading. Please wait.

Awake tab

version 4
version 4

Interactive

12,175 views 1 this week
1 commentread comment
1 2 3 4 5
1 last vote to show rating
add to favorites
×
Save as Personal and add changes to this tab that will be seen only by you. Learn more ›
×
You can save this tab as Personal to edit and correct it or add notes. All changes will be seen only by you. Learn more »
launch autoscroll
font size
0
reset
how to read this tab
guitar tuner
edit
Autoscroll
slow
fast
+/-
esc
set tempo
stop
Difficulty
                                      Awake                                       


                                                             Secondhand Serenade
Guitar



     E  E  E  E  E  E     E  E  E  E  E  E     E  E  E  E  E  E   
E||--------------------|--------------------|--------------------|
C||-----------0--------|-----------0--------|-----------0--------|
G||--------5-----5-----|--------5-----5-----|--------4-----4-----|
D||-----5-----------5--|-----5-----------5--|-----5-----------5--|
A||--3-----------------|--3-----------------|--0-----------------|
E||--------------------|--------------------|--------------------|


  E  E  E  E  E  E     E  E  E  E  E  E     E  E  E  E  E  E   
--------------------|--------------------|--------------------|
-----------0--------|-----------0--------|-----------0--------|
--------4-----4-----|--------5-----5-----|--------5-----5-----|
-----5-----------5--|-----5-----------5--|-----5-----------5--|
--0-----------------|--3-----------------|--3-----------------|
--------------------|--------------------|--------------------|


  E  E  E  E  E  E     E  E  E  E  E  E     E  E  E  E  E  E   
--------------------|--------------------|--------------------|
-----------0--------|-----------0--------|-----------0--------|
--------4-----4-----|--------4-----4-----|--------5-----5-----|
-----5-----------5--|-----5-----------5--|-----5-----------5--|
--0-----------------|--0-----------------|--3-----------------|
--------------------|--------------------|--------------------|


  E  E  E  E  E  E     E  E  E  E  E  E     E  E  E  E  E  E   
--------------------|--------------------|--------------------|
-----------0--------|-----------0--------|-----------0--------|
--------5-----5-----|--------4-----4-----|--------4-----4-----|
-----5-----------5--|-----5-----------5--|-----5-----------5--|
--3-----------------|--0-----------------|--0-----------------|
--------------------|--------------------|--------------------|


  E  E  E  E  E  E     E  E  E  E  E  E     E  E  E  E  E  E   
--------------------|--------------------|--------------------|
-----------0--------|-----------0--------|-----------0--------|
--------5-----5-----|--------5-----5-----|--------4-----4-----|
-----5-----------5--|-----5-----------5--|-----5-----------5--|
--3-----------------|--3-----------------|--0-----------------|
--------------------|--------------------|--------------------|


  E  E  E  E  E  E     E  E  E  E  E  E     E  E  E  E  E  E   
--------------------|--------------------|--------------------|
-----------0--------|-----------0--------|-----------0--------|
--------4-----4-----|--------------------|--------------------|
-----5-----------5--|--------3-----3-----|--------5-----5-----|
--0-----------------|-----3-----------3--|-----5-----------5--|
--------------------|--1-----------------|--3-----------------|


  E  E  E  E  E  E     E  E  E  E  E  E     E  E  E  E  E  E   
--------------------|--------------------|--------------------|
-----------0--------|-----------0--------|-----------0--------|
--------------------|--------------------|--------------------|
--------7-----7-----|--------7-----7-----|--------3-----3-----|
-----7-----------7--|-----7-----------7--|-----3-----------3--|
--5-----------------|--5-----------------|--1-----------------|


  E  E  E  E  E  E     E  E  E  E  E  E     E  E  E  E  E  E   
--------------------|--------------------|--------------------|
-----------0--------|-----------0--------|-----------0--------|
--------------------|--------------------|--------------------|
--------5-----5-----|--------7-----7-----|--------7-----7-----|
-----5-----------5--|-----7-----------7--|-----7-----------7--|
--3-----------------|--5-----------------|--5-----------------|


  E   E   E  E   E   E     E  E  E  E  E  E     E  E  E  E  E  E   
------------------------|--------------------|--------------------|
-------------0----------|-----------0--------|-----------0--------|
------------------------|--------------------|--------------------|
---------10-----10------|--------3-----3-----|--------5-----5-----|
-----10-------------10--|-----3-----------3--|-----5-----------5--|
--8---------------------|--1-----------------|--3-----------------|


  E  E  E  E  E  E     E  E  E  E  E  E     E  E  E  E  E  E   
--------------------|--------------------|--------------------|
--------------------|-----------0--------|-----------0--------|
--------------------|--------------------|--------------------|
--------7--------5--|--------3-----3-----|--------3-----3-----|
-----7--------5-----|-----3-----------3--|-----3-----------3--|
--5--------3--------|--1-----------------|--1-----------------|


  E  E  E  E  E  E     E  E  E  E  E  E     E   E   E  E   E   E   
--------------------|--------------------|------------------------|
-----------0--------|--0--------0--------|-------------0----------|
--------------------|--------------------|------------------------|
--------5-----5-----|-----5--------5-----|---------10-----10------|
-----5-----------5--|--------5--------5--|-----10-------------10--|
--3-----------------|--------------------|--8---------------------|


  E  E  E  E  E  E     E  E  E  E  E  E     E  E  E  E  E  E   
--------------------|--------------------|--------------------|
-----------0--------|-----------0--------|--------------------|
--------------------|--------------------|--------------------|
--------3-----3-----|--------5-----5-----|--------7--------5--|
-----3-----------3--|-----5-----------5--|-----7--------5-----|
--1-----------------|--3-----------------|--5--------3--------|


  E  E  E  E  E  E     E  E  E  E  E  E     E  E  E  E  E  E   
--------------------|--------------------|--------------------|
-----------0--------|-----------0--------|-----------0--------|
--------------------|--------------------|--------------------|
--------3-----3-----|--------3-----3-----|--------5-----5-----|
-----3-----------3--|-----3-----------3--|-----5-----------5--|
--1-----------------|--1-----------------|--3-----------------|


  E  E  E  E  E  E     E  E  E  Q.        Q.     E   E  E     E  E  E  Q.      
--------------------|------------------|-------------------|------------------|
--0--------0--------|-----------0------|-------------------|-----------0------|
--------------------|--------5---------|---------4h--5-----|--------4---------|
-----5--------5-----|-----5------------|----------------5--|-----5------------|
--------5--------5--|--3---------------|-------------------|--0---------------|
--------------------|------------------|-------------------|------------------|


  Q.     E   E  E     E  E  E  Q.        Q.     E   E  E     E  E  E  Q.      
-------------------|------------------|-------------------|------------------|
-------------------|-----------0------|-------------------|-----------0------|
---------4h--5-----|--------5---------|---------4h--5-----|--------4---------|
----------------5--|-----5------------|----------------5--|-----5------------|
-------------------|--3---------------|-------------------|--0---------------|
-------------------|------------------|-------------------|------------------|


  Q    Q    Q       E  E  E  E  E  E     E  E  E  E  E  E   
-----------------|--------------------|--------------------|
-----------------|-----------0--------|-----------0--------|
-----------------|--------5-----5-----|--------5-----5-----|
-----------------|-----5-----------5--|-----5-----------5--|
-----------------|--3-----------------|--3-----------------|
-----------------|--------------------|--------------------|


  E  E  E  E  E  E     E  E  E  E  E  E     E  E  E  E  E  E   
--------------------|--------------------|--------------------|
-----------0--------|-----------0--------|-----------0--------|
--------4-----4-----|--------4-----4-----|--------5-----5-----|
-----5-----------5--|-----5-----------5--|-----5-----------5--|
--0-----------------|--0-----------------|--3-----------------|
--------------------|--------------------|--------------------|


  E  E  E  E  E  E     E  E  E  E  E  E     E  E  E  E  E  S S  
--------------------|--------------------|---------------------|
-----------0--------|-----------0--------|-----------0---------|
--------5-----5-----|--------4-----4-----|--------4-----4------|
-----5-----------5--|-----5-----------5--|-----5-----------x-x-|
--3-----------------|--0-----------------|--0--------------x-x-|
--------------------|--------------------|-----------------x-x-|


  ^   v ^ v ^  ^ v ^ v    ^   v ^ v ^  ^ v ^ v    ^   v ^ v ^  ^ v ^ v  
  E.  S S S E  S S S S    E.  S S S E  S S S S    E.  S S S E  S S S S  
--0-------L-0--------L-|--0-------L-0--------L-|--0-------L-0--------L-|
--0-------L-0--------L-|--0-------L-0--------L-|--0-------L-0--------L-|
--0-------L-0--------L-|--0-------L-0--------L-|--0-------L-0--------L-|
--3---3-3-3-3--3-3-3-3-|--5---5-5-5-5--5-5-5-5-|--7---7-7-7-7--7-7-7-7-|
--3---3-3-3-3--3-3-3-3-|--5---5-5-5-5--5-5-5-5-|--7---7-7-7-7--7-7-7-7-|
--1---1-1-1-1--1-1-1-1-|--3---3-3-3-3--3-3-3-3-|--5---5-5-5-5--5-5-5-5-|


  ^   v ^ v ^  ^ v ^ v    ^   v ^ v ^  ^ v ^ v    ^   v ^ v ^  ^ v ^ v  
  E.  S S S E  S S S S    E.  S S S E  S S S S    E.  S S S E  S S S S  
--0-------L-0--------L-|--0-------L-0--------L-|--0-------L-0--------L-|
--0-------L-0--------L-|--0-------L-0--------L-|--0-------L-0--------L-|
--0-------L-0--------L-|--0-------L-0--------L-|--0-------L-0--------L-|
--7---7-7-7-7--7-7-7-7-|--3---3-3-3-3--3-3-3-3-|--5---5-5-5-5--5-5-5-5-|
--7---7-7-7-7--7-7-7-7-|--3---3-3-3-3--3-3-3-3-|--5---5-5-5-5--5-5-5-5-|
--5---5-5-5-5--5-5-5-5-|--1---1-1-1-1--1-1-1-1-|--3---3-3-3-3--3-3-3-3-|


  ^   v ^ v ^  ^ v ^ v    ^   v ^ v ^  ^ v ^ v  
  E.  S S S E  S S S S    E.  S S S E  S S S S  
--0-------L-0--------L-|--0-------L-0--------L-|
--0-------L-0--------L-|--0-------L-0--------L-|
--0-------L-0--------L-|--0-------L-0--------L-|
--7---7-7-7-7--7-7-7-7-|--7---7-7-7-7--7-7-7-7-|
--7---7-7-7-7--7-7-7-7-|--7---7-7-7-7--7-7-7-7-|
--5---5-5-5-5--5-5-5-5-|--5---5-5-5-5--5-5-5-5-|


   ^    v  ^  v  ^   ^  v  ^  v    ^   v ^ v ^  ^ v ^ v  
   E.   S  S  S  E   S  S  S  S    E.  S S S E  S S S S  
---0----------L--0------------L-|--0-------L-0--------L-|
---0----------L--0------------L-|--0-------L-0--------L-|
---0----------L--0------------L-|--0-------L-0--------L-|
--10---10-10-10-10--10-10-10-10-|--3---3-3-3-3--3-3-3-3-|
--10---10-10-10-10--10-10-10-10-|--3---3-3-3-3--3-3-3-3-|
---8----8--8--8--8---8--8--8--8-|--1---1-1-1-1--1-1-1-1-|


  ^   v ^ v ^  ^ v ^ v    ^   v ^ v ^  ^ v ^ v    ^   v ^ v ^  ^ v ^ v  
  E.  S S S E  S S S S    E.  S S S E  S S S S    E.  S S S E  S S S S  
--0-------L-0--------L-|--0-------L-0--------L-|--0-------L-0--------L-|
--0-------L-0--------L-|--0-------L-0--------L-|--0-------L-0--------L-|
--0-------L-0--------L-|--0-------L-0--------L-|--0-------L-0--------L-|
--5---5-5-5-5--5-5-5-5-|--7---7-7-7-5--5-5-5-5-|--3---3-3-3-3--3-3-3-3-|
--5---5-5-5-5--5-5-5-5-|--7---7-7-7-5--5-5-5-5-|--3---3-3-3-3--3-3-3-3-|
--3---3-3-3-3--3-3-3-3-|--5---5-5-5-3--3-3-3-3-|--1---1-1-1-1--1-1-1-1-|


  ^   v ^ v ^  ^ v ^ v    ^   v ^ v ^  ^ v ^ v    ^   v ^ v ^  ^ v ^ v  
  E.  S S S E  S S S S    E.  S S S E  S S S S    E.  S S S E  S S S S  
--0-------L-0--------L-|--0-------L-0--------L-|--0-------L-0--------L-|
--0-------L-0--------L-|--0-------L-0--------L-|--0-------L-0--------L-|
--0-------L-0--------L-|--0-------L-0--------L-|--0-------L-0--------L-|
--3---3-3-3-3--3-3-3-3-|--5---5-5-5-5--5-5-5-5-|--5---5-5-5-5--5-5-5-5-|
--3---3-3-3-3--3-3-3-3-|--5---5-5-5-5--5-5-5-5-|--5---5-5-5-5--5-5-5-5-|
--1---1-1-1-1--1-1-1-1-|--3---3-3-3-3--3-3-3-3-|--3---3-3-3-3--3-3-3-3-|


   ^    v  ^  v  ^   ^  v  ^  v    ^   v ^ v ^  ^ v ^ v  
   E.   S  S  S  E   S  S  S  S    E.  S S S E  S S S S  
---0----------L--0------------L-|--0-------L-0--------L-|
---0----------L--0------------L-|--0-------L-0--------L-|
---0----------L--0------------L-|--0-------L-0--------L-|
--10---10-10-10-10--10-10-10-10-|--3---3-3-3-3--3-3-3-3-|
--10---10-10-10-10--10-10-10-10-|--3---3-3-3-3--3-3-3-3-|
---8----8--8--8--8---8--8--8--8-|--1---1-1-1-1--1-1-1-1-|


  ^   v ^ v ^  ^ v ^ v    ^   v ^ v ^  ^ v ^ v    ^   v ^ v ^  ^ v ^ v  
  E.  S S S E  S S S S    E.  S S S E  S S S S    E.  S S S E  S S S S  
--0-------L-0--------L-|--0-------L-0--------L-|--0-------L-0--------L-|
--0-------L-0--------L-|--0-------L-0--------L-|--0-------L-0--------L-|
--0-------L-0--------L-|--0-------L-0--------L-|--0-------L-0--------L-|
--5---5-5-5-5--5-5-5-5-|--7---7-7-7-5--5-5-5-5-|--3---3-3-3-3--3-3-3-3-|
--5---5-5-5-5--5-5-5-5-|--7---7-7-7-5--5-5-5-5-|--3---3-3-3-3--3-3-3-3-|
--3---3-3-3-3--3-3-3-3-|--5---5-5-5-3--3-3-3-3-|--1---1-1-1-1--1-1-1-1-|


  ^   v ^ v ^  ^ v ^ v    ^   v ^ v ^  ^ v ^ v    ^   v ^ v ^  ^ v ^ v  
  E.  S S S E  S S S S    E.  S S S E  S S S S    E.  S S S E  S S S S  
--0-------L-0--------L-|--0-------L-0--------L-|--0-------L-0--------L-|
--0-------L-0--------L-|--0-------L-0--------L-|--0-------L-0--------L-|
--0-------L-0--------L-|--0-------L-0--------L-|--0-------L-0--------L-|
--3---3-3-3-3--3-3-3-3-|--5---5-5-5-5--5-5-5-5-|--5---5-5-5-5--5-5-5-5-|
--3---3-3-3-3--3-3-3-3-|--5---5-5-5-5--5-5-5-5-|--5---5-5-5-5--5-5-5-5-|
--1---1-1-1-1--1-1-1-1-|--3---3-3-3-3--3-3-3-3-|--3---3-3-3-3--3-3-3-3-|


                                            ^   v ^ v ^  ^ v ^ v  
  E  E  E  E  E  E     E  E  E  E  E  E     E.  S S S E  S S S S  
--0--0--0-----------|--0--0--0-----------|--0-------L-0--------L-|
--0--0--0-----------|--0--0--0-----------|--0-------L-0--------L-|
--0--0--0-----------|--0--0--0-----------|--0-------L-0--------L-|
--7--7--7-----------|--3--3--3-----------|--5---5-5-5-5--5-5-5-5-|
--7--7--7-----------|--3--3--3-----------|--5---5-5-5-5--5-5-5-5-|
--5--5--5-----------|--1--1--1-----------|--3---3-3-3-3--3-3-3-3-|


  ^   v ^ v ^  ^ v ^ v                                            
  E.  S S S E  S S S S    E  E  E  E  E  E     E  E  E  E  E  E   
--0-------L-0--------L-|--0--0--0-----------|--0--0--0-----------|
--0-------L-0--------L-|--0--0--0-----------|--0--0--0-----------|
--0-------L-0--------L-|--0--0--0-----------|--0--0--0-----------|
--5---5-5-5-5--5-5-5-5-|--7--7--7-----------|--3--3--3-----------|
--5---5-5-5-5--5-5-5-5-|--7--7--7-----------|--3--3--3-----------|
--3---3-3-3-3--3-3-3-3-|--5--5--5-----------|--1--1--1-----------|


  ^   v ^ v ^  ^ v ^ v    ^   v ^ v ^  ^ v ^ v    ^   v ^ v ^  ^ v ^ v  
  E.  S S S E  S S S S    E.  S S S E  S S S S    E.  S S S E  S S S S  
--0-------L-0--------L-|--0-------L-0--------L-|--0-------L-0--------L-|
--0-------L-0--------L-|--0-------L-0--------L-|--0-------L-0--------L-|
--0-------L-0--------L-|--0-------L-0--------L-|--0-------L-0--------L-|
--5---5-5-5-5--5-5-5-5-|--5---5-5-5-5--5-5-5-5-|--7---7-7-7-7--7-7-7-7-|
--5---5-5-5-5--5-5-5-5-|--5---5-5-5-5--5-5-5-5-|--7---7-7-7-7--7-7-7-7-|
--3---3-3-3-3--3-3-3-3-|--3---3-3-3-3--3-3-3-3-|--5---5-5-5-5--5-5-5-5-|


  ^   v ^ v ^  ^ v ^ v    ^   v ^ v ^  ^ v ^ v    ^   v ^ v ^  ^ v ^ v  
  E.  S S S E  S S S S    E.  S S S E  S S S S    E.  S S S E  S S S S  
--0-------L-0--------L-|--0-------L-0--------L-|--0-------L-0--------L-|
--0-------L-0--------L-|--0-------L-0--------L-|--0-------L-0--------L-|
--0-------L-0--------L-|--0-------L-0--------L-|--0-------L-0--------L-|
--3---3-3-3-3--3-3-3-3-|--5---5-5-5-5--5-5-5-5-|--5---5-5-5-5--5-5-5-5-|
--3---3-3-3-3--3-3-3-3-|--5---5-5-5-5--5-5-5-5-|--5---5-5-5-5--5-5-5-5-|
--1---1-1-1-1--1-1-1-1-|--3---3-3-3-3--3-3-3-3-|--3---3-3-3-3--3-3-3-3-|


  ^   v ^ v ^  ^ v ^ v    ^   v ^ v ^  ^ v ^ v    ^   v ^ v ^  ^ v ^ v  
  E.  S S S E  S S S S    E.  S S S E  S S S S    E.  S S S E  S S S S  
--0-------L-0--------L-|--0-------L-0--------L-|--0-------L-0--------L-|
--0-------L-0--------L-|--0-------L-0--------L-|--0-------L-0--------L-|
--0-------L-0--------L-|--0-------L-0--------L-|--0-------L-0--------L-|
--3---3-3-3-3--3-3-3-3-|--3---3-3-3-3--3-3-3-3-|--5---5-5-5-5--5-5-5-5-|
--3---3-3-3-3--3-3-3-3-|--3---3-3-3-3--3-3-3-3-|--5---5-5-5-5--5-5-5-5-|
--1---1-1-1-1--1-1-1-1-|--1---1-1-1-1--1-1-1-1-|--3---3-3-3-3--3-3-3-3-|


  ^   v ^ v ^  ^ v ^ v                                                        
  E.  S S S E  S S S S    Q.     Q    S S    H.              Q.     Q    S S  
--0-------L-0--------L-|--0------L--------|--0------------|------------------|
--0-------L-0--------L-|--0------L--------|--0------------|------------------|
--0-------L-0--------L-|--0------L--------|--0------------|--0------L--------|
--5---5-5-5-5--5-5-5-5-|--5------L----x-x-|--3------------|--5------L----x-x-|
--5---5-5-5-5--5-5-5-5-|--3------L----x-x-|--3------------|--5------L----x-x-|
--3---3-3-3-3--3-3-3-3-|--5------L----x-x-|--1------------|--3------L----x-x-|


  ^   v ^ v ^  ^ v ^ v    ^   v ^ v ^  ^ v ^ v    ^   v ^ v ^  ^ v ^ v  
  E.  S S S E  S S S S    E.  S S S E  S S S S    E.  S S S E  S S S S  
--0-------L-0--------L-|--0-------L-0--------L-|--0-------L-0--------L-|
--0-------L-0--------L-|--0-------L-0--------L-|--0-------L-0--------L-|
--0-------L-0--------L-|--0-------L-0--------L-|--0-------L-0--------L-|
--7---7-7-7-5--5-5-5-5-|--3---3-3-3-3--3-3-3-3-|--3---3-3-3-3--3-3-3-3-|
--7---7-7-7-5--5-5-5-5-|--3---3-3-3-3--3-3-3-3-|--3---3-3-3-3--3-3-3-3-|
--5---5-5-5-3--3-3-3-3-|--1---1-1-1-1--1-1-1-1-|--1---1-1-1-1--1-1-1-1-|


  ^   v ^ v ^  ^ v ^ v    ^   v ^ v ^  ^ v ^ v  
  E.  S S S E  S S S S    E.  S S S E  S S S S  
--0-------L-0--------L-|--0-------L-0--------L-|
--0-------L-0--------L-|--0-------L-0--------L-|
--0-------L-0--------L-|--0-------L-0--------L-|
--5---5-5-5-5--5-5-5-5-|--5---5-5-5-5--5-5-5-5-|
--5---5-5-5-5--5-5-5-5-|--5---5-5-5-5--5-5-5-5-|
--3---3-3-3-3--3-3-3-3-|--3---3-3-3-3--3-3-3-3-|


   ^    v  ^  v  ^   ^  v  ^  v    ^   v ^ v ^  ^ v ^ v  
   E.   S  S  S  E   S  S  S  S    E.  S S S E  S S S S  
---0----------L--0------------L-|--0-------L-0--------L-|
---0----------L--0------------L-|--0-------L-0--------L-|
---0----------L--0------------L-|--0-------L-0--------L-|
--10---10-10-10-10--10-10-10-10-|--3---3-3-3-3--3-3-3-3-|
--10---10-10-10-10--10-10-10-10-|--3---3-3-3-3--3-3-3-3-|
---8----8--8--8--8---8--8--8--8-|--1---1-1-1-1--1-1-1-1-|


  ^   v ^ v ^  ^ v ^ v    ^   v ^ v ^  ^ v ^ v    ^   v ^ v ^  ^ v ^ v  
  E.  S S S E  S S S S    E.  S S S E  S S S S    E.  S S S E  S S S S  
--0-------L-0--------L-|--0-------L-0--------L-|--0-------L-0--------L-|
--0-------L-0--------L-|--0-------L-0--------L-|--0-------L-0--------L-|
--0-------L-0--------L-|--0-------L-0--------L-|--0-------L-0--------L-|
--5---5-5-5-5--5-5-5-5-|--7---7-7-7-5--5-5-5-5-|--3---3-3-3-3--3-3-3-3-|
--5---5-5-5-5--5-5-5-5-|--7---7-7-7-5--5-5-5-5-|--3---3-3-3-3--3-3-3-3-|
--3---3-3-3-3--3-3-3-3-|--5---5-5-5-3--3-3-3-3-|--1---1-1-1-1--1-1-1-1-|


  ^   v ^ v ^  ^ v ^ v    ^   v ^ v ^  ^ v ^ v    ^   v ^ v ^  ^ v ^ v  
  E.  S S S E  S S S S    E.  S S S E  S S S S    E.  S S S E  S S S S  
--0-------L-0--------L-|--0-------L-0--------L-|--0-------L-0--------L-|
--0-------L-0--------L-|--0-------L-0--------L-|--0-------L-0--------L-|
--0-------L-0--------L-|--0-------L-0--------L-|--0-------L-0--------L-|
--3---3-3-3-3--3-3-3-3-|--5---5-5-5-5--5-5-5-5-|--5---5-5-5-5--5-5-5-5-|
--3---3-3-3-3--3-3-3-3-|--5---5-5-5-5--5-5-5-5-|--5---5-5-5-5--5-5-5-5-|
--1---1-1-1-1--1-1-1-1-|--3---3-3-3-3--3-3-3-3-|--3---3-3-3-3--3-3-3-3-|


   ^                                                             
   H.                                                            
---0------------|---------------|---------------|---------------|
---0------------|---------------|---------------|---------------|
---0------------|---------------|---------------|---------------|
--10------------|---------------|---------------|---------------|
--10------------|---------------|---------------|---------------|
---8------------|---------------|---------------|---------------|


---------------|---------------||
---------------|---------------||
---------------|---------------||
---------------|---------------||
---------------|---------------||
---------------|---------------||




Duration Legend
---------------
W - whole
H - half
Q - quarter
E - 8th
S - 16th
T - 32nd
X - 64th
. - note dotted
|-n-|  - n-tuplets


Tablature Legend
----------------
L - tied note
x - dead note
g - grace note
(n) - ghost note
> - accentuded note
NH - natural harmonic
AH - artificial harmonic
TH - tapped harmonic
SH - semi harmonic
PH - pitch harmonic
h - hammer on
p - pull off
b - bend
br - bendRelease
pb - preBend
pbr - preBendRelease
brb - bendReleaseBend
\n/ - tremolo bar dip
\n - tremolo bar dive
-/n - tremolo bar Release up
/n\ - tremolo bar inverted dip
/n - tremolo bar return
-\n - tremolo bar Release down
S - shift slide
s - legato slide
/ -  slide into from below or out of upwards
\ -  slide into from above or out of downwards
~ - vibrato
W - wide vibrato
tr - trill
TP - tremolo picking
T - tapping
S - slap
P - pop
< - fade in
^ - brush up
v - brush down

            
            
Suggest correction
Creating personal tab
Creating personal tab
You can edit any tab online and save it as your Personal.

You can edit, replace or remove any tab part or add personal notes – all changes will be seen only by you.

Personal tabs can be accessed anytime from any device, even offline.
Learn more »
Give kudos to tab author, rate the tab!
1 2 3 4 5
comments
print report bad tab
1 comment total.
0 reply
BonakiD 10 Aug 06, 2008 11:17 AM

nice tab.. well done mate.. sounds accurate.. ^^

guest
Wanna post a correction for this tab? Suggest correction