Oops, an error
Loading. Please wait.

Goodbye chords

version 5
version 5

Whole song

283 views 1 this week
1 commentread comment
1 2 3 4 5
2 more votes to show rating
add to favorites
×
Save as Personal and add changes to this tab that will be seen only by you. Learn more ›
×
You can save this tab as Personal to edit and correct it or add notes. All changes will be seen only by you. Learn more »
launch autoscroll
font size
0
reset
transpose
0
reset
simplify chords
display chords
guitar tuner
edit
Autoscroll
slow
fast
+/-
esc
set tempo
stop
Strumming
There is no strumming pattern for this song yet. and get +5 IQ
Secondhand Serenade - Goodbye


1/2 step down tuning from standard


Intro:

                    E                                D4
e|----------0----------------0----------------0---------------0--------------|
B|------0---------0------0---------0------0---------0-----0----------0-------|
G|------------9----------------9----------------9----------------9-----------|
D|----9---9-----9------9---9-----9------9---9-----9-----9---9------9---------|
A|--7----------------7-------------------------------------------------------|
E|------------------------------------9---------------9----------------------|
                 Asus2                   E               Bsus2  
e|----------0---------------0----------------0----------------0--------------|
B|------0---------0-----0---------0------0---------0----------------0--------|
G|------------9---------------9----------------9----------8-----9------------|
D|----9---9-----9-----9---9-----9------9---9-----9------9---9-----9----------|
A|--0---------------0----------------7---------------------------------------|
E|----------------------------------------------------7----------------------|

Chords:

E:      022100
D4:     046600
Bsus2:  024400
Asus2:  002200


Verse:
E                                   D4
It's a shame that it had to be this way
                            Asus2
It's not enough to say I'm sorry
                           E  Bsus2
It's not enough to say I'm sorry

             E
Maybe I'm to blame
                  D4
Or maybe were the same
                   Asus2
But either way I can't breathe
               E     Bsus2
Either way I can't breathe

 Asus2 Bsus2          D4
All I had to say is goodbye
E                    Asus2
Were better off this way
Bsus2                D4      
Were better off this way

    E                           D4
I'm alive but I'm losing all my drive
                       Asus2
Cause everything were been through
                  E  Bsus2
And everything about you

               E
Seemed to be a lie
                    D4
A guiltless twisted lie
                    Asus2
It made me learn to hate you
                    E             Bsus2
Or hate myself for letting it pass by

 Asus2 Bsus2          D4
All I had to say is goodbye
E                    Asus2
Were better off this way
Bsus2                D4      
Were better off this way

 Asus2 Bsus2          D4
All I had to say is goodbye
E                    Asus2
Were better off this way
Bsus2                D4      
Were better off this way

    Asus2  Bsus2            D4
And every, everything isn't only
E                 Asus2
What it seemed so hold these
Bsus2                D4
Words that you never told me

E                  Asus2
Its time to say goodbye
Bsus2              D4
Its time to say goodbye
E                  Asus2
Its time to say goodbye
Bsus2 D4
  Goodbye



E - D4 - Asus2 - E - Bsus2
Bye...

E             D4
Take my pain away

Tear it out
Asus2
Tell me I was wrong
E            Bsus2
Tell me I was wrong

E            D4
Take my pain away

Tear it out
Asus2
Tell me I was wrong
E            Bsus2
Tell me I was wrong

E             D4
Take my pain away

Tear it out
Asus2
Tell me I was wrong
E            Bsus2
Tell me I was wrong

E             D4
Take my pain away

Tear it out (Tell me I)
Asus2
Tell me I was wrong
E            Bsus2
Tell me I was wrong

Outro:

E - D4 - Asus2 - E - Bsus2

            
            
Suggest correction
Creating personal tab
Creating personal tab
You can edit any tab online and save it as your Personal.

You can edit, replace or remove any tab part or add personal notes – all changes will be seen only by you.

Personal tabs can be accessed anytime from any device, even offline.
Learn more »
Give kudos to tab author, rate the tab!
1 2 3 4 5
comments
print report bad tab
1 comment total.
0 reply
roqueforti 10 Sep 15, 2015 05:47 AM

best tab! good job :D

guest
You may want to rate the tab now too:
select rating
Wanna post a correction for this tab? Suggest correction