Oops, an error
Loading. Please wait.

I Hate This Song tab

version 1
version 1

Whole song

Interactive

57,840 views 6 this week
5 commentsread comments
1 2 3 4 5
x 11
add to favorites
×
Save as Personal and add changes to this tab that will be seen only by you. Learn more ›
×
You can save this tab as Personal to edit and correct it or add notes. All changes will be seen only by you. Learn more »
launch autoscroll
font size
0
reset
how to read this tab
guitar tuner
edit
Autoscroll
slow
fast
+/-
esc
set tempo
stop
Author
Difficulty
--------------------------------------
I HATE THIS SONG – Secondhand Serenade
--------------------------------------
Tabbed by: nikkiboyz
Email: mathTUTOR_palma@yahoo.com

Heheh. First time ko mag submit ng tabs dito kaya medyo mahirap intindihin.
I dedicate this tab to nikkigirl ng PMSBiñan.
Nga pala, i also dedicate this tab to Luis Reyes dahil kame kumapa nito.
Pati na rin sa 'Beho' band lalo na sa bokalista


Tuning: Standard

Time Signature: 6/8


Intro:

e|---------------------------------------------------------------------------|
B|--------5-----------5-----------5-----------5------------------------------|
G|--4-4-4---4-4-4-4-4---4-4-4-4-4---4-4-4-4-4---4-4-4-4-4--------------------|
D|---------------------------------------------------------------------------|
A|---------------------------------------------------------------------------|
E|---------------------------------------------------------------------------|

e|--0-0-0-0-0-0-0-0--0-0-0-0-0-0-0-0--0-0-0-0-0-0-0-0--0-0-0-0-0-0-0-0-------|
B|--0-0-0-0-0-0-0-0--0-0-0-0-0-0-0-0--0-0-0-0-0-0-0-0--0-0-0-0-0-0-0-0-------|
G|--9-9-9-9-9-9-9-9--6-6-6-6-6-6-6-6--4-4-4-4-4-4-4-4--2-2-2-2-2-2-2-2-------|
D|--9-9-9-9-9-9-9-9--6-6-6-6-6-6-6-6--4-4-4-4-4-4-4-4--2-2-2-2-2-2-2-2-------|
A|--7-7-7-7-7-7-7-7--4-4-4-4-4-4-4-4--2-2-2-2-2-2-2-2--0-0-0-0-0-0-0-0-------|
E|--0-0-0-0-0-0-0-0--0-0-0-0-0-0-0-0--0-0-0-0-0-0-0-0--0-0-0-0-0-0-0-0-------|


Verse:

e|--0-0-0-0-0-0-0-0--0-0-0-0-0-0-0-0--0-0-0-0-0-0-0-0--0-0-0-0-0-0-0-0-------|
B|--0-0-0-0-0-0-0-0--0-0-0-0-0-0-0-0--0-0-0-0-0-0-0-0--0-0-0-0-0-0-0-0-------|
G|--9-9-9-9-9-9-9-9--6-6-6-6-6-6-6-6--4-4-4-4-4-4-4-4--2-2-2-2-2-2-2-2-------|
D|--9-9-9-9-9-9-9-9--6-6-6-6-6-6-6-6--4-4-4-4-4-4-4-4--2-2-2-2-2-2-2-2-------|
A|--7-7-7-7-7-7-7-7--4-4-4-4-4-4-4-4--2-2-2-2-2-2-2-2--0-0-0-0-0-0-0-0-------|
E|--0-0-0-0-0-0-0-0--0-0-0-0-0-0-0-0--0-0-0-0-0-0-0-0--0-0-0-0-0-0-0-0-------|
    Speak with your tongue tied...

e|--0-0-0-0-0-0-0-0--0-0-0-0-0-0-0-0--0-0-0-0-0-0-0-0--0-0-0-0-0-0-0-0-------|
B|--0-0-0-0-0-0-0-0--0-0-0-0-0-0-0-0--0-0-0-0-0-0-0-0--0-0-0-0-0-0-0-0-------|
G|--9-9-9-9-9-9-9-9--6-6-6-6-6-6-6-6--4-4-4-4-4-4-4-4--2-2-2-2-2-2-2-2-------|
D|--9-9-9-9-9-9-9-9--6-6-6-6-6-6-6-6--4-4-4-4-4-4-4-4--2-2-2-2-2-2-2-2-------|
A|--7-7-7-7-7-7-7-7--4-4-4-4-4-4-4-4--2-2-2-2-2-2-2-2--0-0-0-0-0-0-0-0-------|
E|--0-0-0-0-0-0-0-0--0-0-0-0-0-0-0-0--0-0-0-0-0-0-0-0--0-0-0-0-0-0-0-0-------|
    I may be sad...


Chorus:

e|--0-0-0-0--0-0-0-0--0-0-0-0-0-0-0-0---0-0-0-0--0-0-0-0--0-0-0-0-0-0-0-0----|
B|--0-0-0-0--0-0-0-0--0-0-0-0-0-0-0-0---0-0-0-0--0-0-0-0--0-0-0-0-0-0-0-0----|
G|--9-9-9-9--8-8-8-8--6-6-6-6-6-6-6-6---9-9-9-9--8-8-8-8--6-6-6-6-6-6-6-6----|
D|--9-9-9-9--9-9-9-9--7-7-7-7-7-7-7-7---9-9-9-9--9-9-9-9--7-7-7-7-7-7-7-7----|
A|--7-7-7-7--6-6-6-6--7-7-7-7-7-7-7-7---9-9-9-9--9-9-9-9--7-7-7-7-7-7-7-7----|
E|--0-0-0-0--0-0-0-0--5-5-5-5-5-5-5-5---0-0-0-0--0-0-0-0--5-5-5-5-5-5-5-5----|
    Until Sunday, I’ll be waiting...

e|--0-0-0-0--0-0-0-0--0-0-0-0-0-0-0-0---0-0-0-0--0-0-0-0--0-0-0-0-0-0-0-0----|
B|--0-0-0-0--0-0-0-0--0-0-0-0-0-0-0-0---0-0-0-0--0-0-0-0--0-0-0-0-0-0-0-0----|
G|--9-9-9-9--8-8-8-8--6-6-6-6-6-6-6-6---9-9-9-9--8-8-8-8--6-6-6-6-6-6-6-6----|
D|--9-9-9-9--9-9-9-9--7-7-7-7-7-7-7-7---9-9-9-9--9-9-9-9--7-7-7-7-7-7-7-7----|
A|--7-7-7-7--6-6-6-6--7-7-7-7-7-7-7-7---9-9-9-9--9-9-9-9--7-7-7-7-7-7-7-7----|
E|--0-0-0-0--0-0-0-0--5-5-5-5-5-5-5-5---0-0-0-0--0-0-0-0--5-5-5-5-5-5-5-5----|
    I hate this song...


Interlude:
e|--0-0-0-0-0-0-0-0--0-0-0-0-0-0-0-0--0-0-0-0-0-0-0-0--0-0-0-0-0-0-0-0-------|
B|--0-0-0-0-0-0-0-0--0-0-0-0-0-0-0-0--0-0-0-0-0-0-0-0--0-0-0-0-0-0-0-0-------|
G|--9-9-9-9-9-9-9-9--6-6-6-6-6-6-6-6--4-4-4-4-4-4-4-4--2-2-2-2-2-2-2-2-------|
D|--9-9-9-9-9-9-9-9--6-6-6-6-6-6-6-6--4-4-4-4-4-4-4-4--2-2-2-2-2-2-2-2-------|
A|--7-7-7-7-7-7-7-7--4-4-4-4-4-4-4-4--2-2-2-2-2-2-2-2--0-0-0-0-0-0-0-0-------|
E|--0-0-0-0-0-0-0-0--0-0-0-0-0-0-0-0--0-0-0-0-0-0-0-0--0-0-0-0-0-0-0-0-------|


Verse:

e|--0-0-0-0-0-0-0-0--0-0-0-0-0-0-0-0--0-0-0-0-0-0-0-0--0-0-0-0-0-0-0-0-------|
B|--0-0-0-0-0-0-0-0--0-0-0-0-0-0-0-0--0-0-0-0-0-0-0-0--0-0-0-0-0-0-0-0-------|
G|--9-9-9-9-9-9-9-9--6-6-6-6-6-6-6-6--4-4-4-4-4-4-4-4--2-2-2-2-2-2-2-2-------|
D|--9-9-9-9-9-9-9-9--6-6-6-6-6-6-6-6--4-4-4-4-4-4-4-4--2-2-2-2-2-2-2-2-------|
A|--7-7-7-7-7-7-7-7--4-4-4-4-4-4-4-4--2-2-2-2-2-2-2-2--0-0-0-0-0-0-0-0-------|
E|--0-0-0-0-0-0-0-0--0-0-0-0-0-0-0-0--0-0-0-0-0-0-0-0--0-0-0-0-0-0-0-0-------|
    Drown your tears with me...

e|--0-0-0-0-0-0-0-0--0-0-0-0-0-0-0-0--0-0-0-0-0-0-0-0--0-0-0-0-0-0-0-0-------|
B|--0-0-0-0-0-0-0-0--0-0-0-0-0-0-0-0--0-0-0-0-0-0-0-0--0-0-0-0-0-0-0-0-------|
G|--9-9-9-9-9-9-9-9--6-6-6-6-6-6-6-6--4-4-4-4-4-4-4-4--2-2-2-2-2-2-2-2-------|
D|--9-9-9-9-9-9-9-9--6-6-6-6-6-6-6-6--4-4-4-4-4-4-4-4--2-2-2-2-2-2-2-2-------|
A|--7-7-7-7-7-7-7-7--4-4-4-4-4-4-4-4--2-2-2-2-2-2-2-2--0-0-0-0-0-0-0-0-------|
E|--0-0-0-0-0-0-0-0--0-0-0-0-0-0-0-0--0-0-0-0-0-0-0-0--0-0-0-0-0-0-0-0-------|
    But you’re way to deep to swim...


Chorus:

e|--0-0-0-0--0-0-0-0--0-0-0-0-0-0-0-0---0-0-0-0--0-0-0-0--0-0-0-0-0-0-0-0----|
B|--0-0-0-0--0-0-0-0--0-0-0-0-0-0-0-0---0-0-0-0--0-0-0-0--0-0-0-0-0-0-0-0----|
G|--9-9-9-9--8-8-8-8--6-6-6-6-6-6-6-6---9-9-9-9--8-8-8-8--6-6-6-6-6-6-6-6----|
D|--9-9-9-9--9-9-9-9--7-7-7-7-7-7-7-7---9-9-9-9--9-9-9-9--7-7-7-7-7-7-7-7----|
A|--7-7-7-7--6-6-6-6--7-7-7-7-7-7-7-7---9-9-9-9--9-9-9-9--7-7-7-7-7-7-7-7----|
E|--0-0-0-0--0-0-0-0--5-5-5-5-5-5-5-5---0-0-0-0--0-0-0-0--5-5-5-5-5-5-5-5----|
    Until Sunday, I’ll be waiting...

e|--0-0-0-0--0-0-0-0--0-0-0-0-0-0-0-0---0-0-0-0--0-0-0-0--0-0-0-0-0-0-0-0----|
B|--0-0-0-0--0-0-0-0--0-0-0-0-0-0-0-0---0-0-0-0--0-0-0-0--0-0-0-0-0-0-0-0----|
G|--9-9-9-9--8-8-8-8--6-6-6-6-6-6-6-6---9-9-9-9--8-8-8-8--6-6-6-6-6-6-6-6----|
D|--9-9-9-9--9-9-9-9--7-7-7-7-7-7-7-7---9-9-9-9--9-9-9-9--7-7-7-7-7-7-7-7----|
A|--7-7-7-7--6-6-6-6--7-7-7-7-7-7-7-7---9-9-9-9--9-9-9-9--7-7-7-7-7-7-7-7----|
E|--0-0-0-0--0-0-0-0--5-5-5-5-5-5-5-5---0-0-0-0--0-0-0-0--5-5-5-5-5-5-5-5----|
    I hate this song...


Bridge:
(pakinggan niu na lang ung strumming para makuha nio)

e|--0-------0-------0-----------------------0--0----0--0----0-0-0-0-0-0-0-0--|
B|--0-------0-------0-----------------------0--0----0--0----0-0-0-0-0-0-0-0--|
G|--6-------4-------2--(break)--------------6--6----4--4----2-2-2-2-2-2-2-2--|
D|--6-------4-------2-----------------------6--6----4--4----2-2-2-2-2-2-2-2--|
A|--4-------2-------0-----------------------4--4----2--2----0-0-0-0-0-0-0-0--|
E|---------------------------------------------------------------------------|
    This is becoming a problem...


Coda:

e|--0-0-0-0-0-0-0-0--0-0-0-0-0-0-0-0--0-0-0-0-0-0-0-0--0-0-0-0-0-0-0-0-------|
B|--0-0-0-0-0-0-0-0--0-0-0-0-0-0-0-0--0-0-0-0-0-0-0-0--0-0-0-0-0-0-0-0-------|
G|--9-9-9-9-9-9-9-9--6-6-6-6-6-6-6-6--4-4-4-4-4-4-4-4--2-2-2-2-2-2-2-2--(2x)-|
D|--9-9-9-9-9-9-9-9--6-6-6-6-6-6-6-6--4-4-4-4-4-4-4-4--2-2-2-2-2-2-2-2-------|
A|--7-7-7-7-7-7-7-7--4-4-4-4-4-4-4-4--2-2-2-2-2-2-2-2--0-0-0-0-0-0-0-0-------|
E|--0-0-0-0-0-0-0-0--0-0-0-0-0-0-0-0--0-0-0-0-0-0-0-0--0-0-0-0-0-0-0-0-------|
    Ur under my skin...


Chorus:

e|--0-0-0-0--0-0-0-0--0-0-0-0-0-0-0-0---0-0-0-0--0-0-0-0--0-0-0-0-0-0-0-0----|
B|--0-0-0-0--0-0-0-0--0-0-0-0-0-0-0-0---0-0-0-0--0-0-0-0--0-0-0-0-0-0-0-0----|
G|--9-9-9-9--8-8-8-8--6-6-6-6-6-6-6-6---9-9-9-9--8-8-8-8--6-6-6-6-6-6-6-6----|
D|--9-9-9-9--9-9-9-9--7-7-7-7-7-7-7-7---9-9-9-9--9-9-9-9--7-7-7-7-7-7-7-7----|
A|--7-7-7-7--6-6-6-6--7-7-7-7-7-7-7-7---9-9-9-9--9-9-9-9--7-7-7-7-7-7-7-7----|
E|--0-0-0-0--0-0-0-0--5-5-5-5-5-5-5-5---0-0-0-0--0-0-0-0--5-5-5-5-5-5-5-5----|
    Until Sunday, I’ll be waiting...

e|--0-0-0-0--0-0-0-0--0-0-0-0-0-0-0-0---0-0-0-0--0-0-0-0--0-0-0-0--0---0-----|
B|--0-0-0-0--0-0-0-0--0-0-0-0-0-0-0-0---0-0-0-0--0-0-0-0--0-0-0-0--0---0-----|
G|--9-9-9-9--8-8-8-8--6-6-6-6-6-6-6-6---9-9-9-9--8-8-8-8--6-6-6-6--6---6-----|
D|--9-9-9-9--9-9-9-9--7-7-7-7-7-7-7-7---9-9-9-9--9-9-9-9--7-7-7-7--7---7-----|
A|--7-7-7-7--6-6-6-6--7-7-7-7-7-7-7-7---9-9-9-9--9-9-9-9--7-7-7-7--7---7-----|
E|--0-0-0-0--0-0-0-0--5-5-5-5-5-5-5-5---0-0-0-0--0-0-0-0--5-5-5-5--5---5-----|
    I hate this song...                                              


===============================================================================


Comments? Tactics? Suggestions?
	Email: mathTUTOR_palma@yahoo.com
	Call or txt: 09064389420


===============================================================================


Eto pala ung lyrics:


Verse:
Speak with your tongue tied, 
I know that you're tired 
But I just want to know, 
Where you want to go 
I may be sad, But I'm not weak, 
This situation is bleak 
And your puffy eyes never lie, 
Your tears come from inside. 

Chorus: 
Until Sunday I'll be waiting for an answer 
I guess that yesterday's not good enough for you, 
You know that I hate this song, 
You know that I hate this song 
Because it was written for you 

Verse:
Drown your fears with me 
I'm feeling real sorry 
Your glossy eyes don't need 
The sadness they have seen 
But you're way too deep to swim 
Back up again 
But somehow I can't find 
The moment you said goodbye 

Chorus: 
Until Sunday I'll be waiting for an answer 
I guess that yesterday's not good enough for you, 
You know that I hate this song, 
You know that I hate this song 
Because it was written for you 

Bridge:
This is becoming a problem I'm hurting it's unfair 
But somehow your words, 
The way that I heard are haunting me, 
Coda:
You're under my skin 
You're breaking in, 
And the tasteless fights that filled our nights 
Are starting to cave in, 
You're under my skin 
You're breaking in 
And if Sundays what it takes to prove 
I have nothing else to loose 

Chorus: 
Until Sunday I'll be waiting for an answer 
I guess that yesterday's not good enough for you, 
You know that I hate this song, 
You know that I hate this song 
Because it was written for you 



            
            
Suggest correction
Creating personal tab
Creating personal tab
You can edit any tab online and save it as your Personal.

You can edit, replace or remove any tab part or add personal notes – all changes will be seen only by you.

Personal tabs can be accessed anytime from any device, even offline.
Learn more »
comments
print report bad tab
5 comments total. Showing first comments.
0 reply
nikkiboyz 51 Nov 15, 2007 07:58 PM

heheh, nice

0 reply
jbluvr0916 10 Dec 21, 2008 01:02 PM

your a filipno huh?

0 reply
Dave-CORE 10 Jan 12, 2009 03:43 AM

nice, sounds so much like it (:

guest
You may want to rate the tab now too:
select rating
Wanna post a correction for this tab? Suggest correction