Oops, an error
Loading. Please wait.

Let It Roll tab

version 2
version 2

Whole song

Interactive

3,321 views 3 this week
no commentswrite comment
1 2 3 4 5
2 more votes to show rating
add to favorites
×
Save as Personal and add changes to this tab that will be seen only by you. Learn more ›
×
You can save this tab as Personal to edit and correct it or add notes. All changes will be seen only by you. Learn more »
launch autoscroll
font size
0
reset
how to read this tab
guitar tuner
edit
Autoscroll
slow
fast
+/-
esc
set tempo
stop
Intro
e|-----------------|-----------------|----------------|-----------------|
B|-----------------|-----------------|--------7-------|-----------------|
G|-----9---8---9---|-----9-------8---|-----9----9---9-|-----9---8---9---|
D|---9---9---9---9-|---9---9---9---9-|---9---9----9---|---9---9---9---9-|
A|-7---------------|-0-------0-------|----------------|-----------------|
E|-----------------|-----------------|-9--------------|-7---------------|

repeat this with the only difference of the second part which is changed to 

e|------------------------|
B|------------------------|
G|-------9-------9--------|not much different the eight is changed to a nine
D|-----9---9---9---9------|
A|---0-------0------------|
E|------------------------|

0:41 "now it's over...."
e|--------------------------------------------|
B|--------------------------------------------| repeat everything but
G|----9999--9999--9-9--9999--9-9-9-9-9--9999--| only palm mute the first 
D|----9999--9999--9-9--9999--9-9-9-9-9--9999--| time
A|----0000--xxxx--x-x--xxxx-1111111111--9999--|
E|----------7777--7-7--9999-------------------|
      ....  ....

chorus
e|--------------------------------|
B|--------------------------------|
G|--9999-9999-9999--9-9-9-9-9999--| 
D|--9999-9999-9999--9-9-9-9-9999--| 
A|--0000-xxxx-xxxx-11111111-9999--|
E|-------7777-9999----------------|

cont.
e|----------------------------|
B|----------------------------|
G|--9999-9999-9999--9-9-9-9---| 
D|--9999-9999-9999--9-9-9-9---| 
A|--0000-xxxx-xxxx--x-x-x-x---|
E|-------7777-9999-11111111---|

then repeat from the start of the song again
second verse has a few added parts, you do repeat but over top this plays

e|------------------------|
B|------------------------| this is play the second time the intro is
G|--9999-9999-9999-9999---| repeated, which is when he starts to sing
D|--9999-9999-9999-9999---|
A|--7777-0000-xxxx-xxxx---|
E|------------9999-7777---|
    .... .... .... ....

another riff is layered over top when he sings.... 

"and I know it's late....."
e|--0---------------|--0-----------------| 
B|----12--12---10-9-|----12---12---10--9-| 
G|------------------|--------------------| 
D|------------------|--------------------|  
A|------------------|--------------------|
E|------------------|--------------------|

cont.
e|---0---0----0----0----0----0-----|
B|-9---9---10---12---12---10---9---|repeat only this part 
G|---------------------------------|
D|---------------------------------|
A|---------------------------------| 
E|---------------------------------|

then go back to pre-chorus + chorus 
this is played over top of the chord below

e|---------------------------|
B|---------------------------|
G|--------9---8---9----------|repeat this 4 times
D|------9---9---9---9--------|
A|---7-----------------------|
E|---------------------------|

CHORD
e|--------------|
B|--------------|
G|-----9~-------|
D|-----9~-------|
A|-----7~-------| 
E|--------------|

e|----------------------|--------------|
B|----------------------|--------------|
G|--8---9---8---9---8---|---9---9---9--|
D|----9---9---9---9-----|-9---9---9----|
A|----------------------|--------------|
E|----------------------|--------------|

cont.
e|--------------------------|----------------|
B|--------------------------|---7------------|
G|--8---9---8---9---8---9---|-----9---9------| repeat this 
D|----9---9---9---9---9---9-|-------9--------|
A|--------------------------|----------------| 
E|--------------------------|----------------|

cont.  
e|-----------------------|
B|-----------------------|
G|--8---9---8---9---8--9-|
D|----9---9---9---9---9--|
A|-----------------------|
E|-----------------------|

the chords in this section are 

(2:33) 
e|----------------------|----------------|
B|----------------------|----------------|
G|--9999-9999-9999-9999-|-play----9--9---| the second time you play 
D|--9999-9999-9999-9999-|-twice---9--9---| the first part hold the last 
A|--0000-xxxx-xxxx-xxxx-|-then>>--x--x---| 2 chords for a little longer
E|-------7777-9999-7777-|---------7--7---|

then go to the chorus again

during the chorus lead pattern changes a bit

(2:53)
e|------------------------------------|
B|----------------------------7-------|
G|--9-8---9-8---9-8----9-8------8-----|
D|------9-----9-----9------9------9---| repeat this till (3:25)
A|------------------------------------| 
E|------------------------------------|

(3:25) this part is the same only the last little bit is not played
e|--------------------------|
B|--------------------------|
G|-9-8---9-8---9-8---9-8----|
D|-----9-----9-----9-----9--|
A|--------------------------| 
E|--------------------------|





            
            
Suggest correction
Creating personal tab
Creating personal tab
You can edit any tab online and save it as your Personal.

You can edit, replace or remove any tab part or add personal notes – all changes will be seen only by you.

Personal tabs can be accessed anytime from any device, even offline.
Learn more »
Give kudos to tab author, rate the tab!
1 2 3 4 5
comments
print report bad tab
guest
You may want to rate the tab now too:
select rating
Wanna post a correction for this tab? Suggest correction