Oops, an error
Loading. Please wait.

Stay Close Dont Go tab

version 1
version 1

Whole song

Interactive

44,128 views 6 this week
4 commentsread comments
1 2 3 4 5
x 7
add to favorites
×
Save as Personal and add changes to this tab that will be seen only by you. Learn more ›
×
You can save this tab as Personal to edit and correct it or add notes. All changes will be seen only by you. Learn more »
launch autoscroll
font size
0
reset
how to read this tab
guitar tuner
edit
Autoscroll
slow
fast
+/-
esc
set tempo
stop
Author
-------------------------------------------------------------------------------
                                            STAY CLOSE, DON'T GO - Secondhand Serenade
-------------------------------------------------------------------------------
Tabbed by: swany249
Email: swany249@aol.com

Tuning: Down a half step: Eb,Ab,Db,Gb,Bb,eb

    INTRO
eb|-------------------------------------------------------------------------|
Bb|------------------9---9---10---9---7---7---7---7---10-9---10-9---10-9----|
Gb|--9---9---9---9-----------------------------------------9------9---------|
Db|----9---9---9---9---9---9----9---9---9---9---9---9-----------------------|
Ab|-------------------------------------------------------------------------|
Eb|-------------------------------------------------------------------------|

   INTRO could also be played this way with out changing tuning and chords
in VERSE and CHORUS just need to be played as power chords and a half step
down. I like it with the tuning change better.

e|------------------3---3---4---3---1---1---1---1-----4-3---4-3---4-3-------|
B|--4---4---4---4-----------------------------------------4-----4-----------|
G|----3---3---3---3---3---3---3---3---3---3---3---3-------------------------|
D|--------------------------------------------------------------------------|
A|--------------------------------------------------------------------------|
E|--------------------------------------------------------------------------|

    VERSE <-- strum however you like
eb|-----|-----|-----|-----|
Bb|-----|-----|-----|-----|
Gb|--9--|--6--|--4--|--2--|
Db|--9--|--6--|--4--|--2--|
Ab|--7--|--4--|--2--|--0--|
Eb|-----|-----|-----|-----|

    PRE-CHORUS <-- Have another guitar play the intro through this
eb|------------|------------|--|------------|
Bb|------------|------------|--|------------|
Gb|--44444444--|--22222222--|--|--22222222--|
Db|--44444444--|--22222222--|x2|--22222222--| <-- Last time
Ab|--22222222--|--00000000--|--|--00000000--|
Eb|------------|------------|--|------------|
               \____________/  \________xx__/
                    1st             2nd

    CHORUS <-- strum however you like...Except these measures
eb|-----|-----|-----|-----||-----|-----|----------|-----|
Bb|-----|-----|-----|-----||-----|-----|----------|-----|
Gb|--9--|--4--|--6--|--2--||--9--|--4--|--66--44--|--2--|
Db|--9--|--4--|--6--|--2--||--9--|--4--|--66--44--|--2--|
Ab|--7--|--2--|--4--|--0--||--7--|--2--|--44--22--|--0--|
Eb|-----|-----|-----|-----||-----|-----|----------|-----|

    SOLO
eb|--------------------|-------------|--------------------|--------------|
Bb|------12-----12-10--|--9-10-9-----|------12-----12-10--|--9-10-12-----|
Gb|--8h9----8h9--------|---------11--|--8h9----8h9--------|----------11--|
Db|--------------------|-------------|--------------------|--------------|
Ab|--------------------|-------------|--------------------|--------------|
Eb|--------------------|-------------|--------------------|--------------|

eb|----------|
Bb|------12--|
Gb|--8h9-----|
Db|----------| x10
Ab|----------|
Eb|----------|

   SOLO Chords for other guitar:|A B|E C#| x2, |A|A|B|B  
                                                      1 2(continue to bridge)
   BRIDGE
  (play chords as if no tuning change and use power chords)

     3     +    1
     C#         E
And don't you know
   B         C#
My heart is open
         B              A
Oh, it's putting up the fight
         B            E
And I've got this feeling
       C#             A      
That everything's alright

Don't you see
           B
I'm not the only one for you

But you're the only one for me


ORDER:
Intro
Verse x2
Pre-Chorus
Chorus
Verse x2
Pre-Chorus
Chorus
Solo
Bridge
Chorus (first half played twice)
       (last chord progression played twice ending on E)


| /  slide up
| \  slide down
| h  hammer-on
| p  pull-off
| ~  vibrato
| +  harmonic
| x  Mute note
===============================================================================

            
            
Suggest correction
Creating personal tab
Creating personal tab
You can edit any tab online and save it as your Personal.

You can edit, replace or remove any tab part or add personal notes – all changes will be seen only by you.

Personal tabs can be accessed anytime from any device, even offline.
Learn more »
comments
print report bad tab
4 comments total. Showing first comments.
+5 reply
Rayvier 53 Nov 24, 2008 03:02 AM

I'd just like to add a riff. This is the riff before the chorus:

|----------------------------|----------------------------|----------------------------|------------------|
|----------------------------|----------------------------|----------------------------|-10-9---10-9---10-|
|-8-8-8s9-9-9s11-11-11s13-13-|-8-8-8s9-9-9s11-11-11s13-13-|-8-8-8s9-9-9s11-11-11s13-13-|------9------9----|
|----------------------------|----------------------------|----------------------------|------------------|
|----------------------------|----------------------------|----------------------------|------------------|
|----------------------------|----------------------------|----------------------------|------------------|

+2 reply
Rayvier 53 Nov 25, 2008 01:13 AM

Same tuning btw...

-2 reply
ChrisJason 10 May 18, 2011 09:27 PM

hello po.. pano po sahin ang tabs na yan,, plsss patoro

guest
You may want to rate the tab now too:
select rating
Wanna post a correction for this tab? Suggest correction